Song name
# A B C D E F G H I J K L M N O P Q R S T U V W X Y Z

Jose Torregrosa - Zapateado tab

Percusion Flamenca ( Zapateado ) - Jose Torregrosa
romano@wanadoo.fr
http://perso.wanadoo.fr/romano

Tuning : E A D G B E   -   Time Signature: 6/8

 |     |      |     |      |     |      |     |      |     |      
|------------|------------|------------|------------|------------|
|--0-----0---|--0---0-----|--1-----1---|--1-----0---|--0-----0---|
|--0-----0---|--0---0-----|--0-----0---|--0-----0---|--0-----0---|
|----3-----3-|----3-2h--0-|----2-----0-|----3-------|----3-----3-|
|5-----4-----|5-----------|3-----2-----|0-----2---3-|5-----4-----|
|------------|------------|------------|------------|------------|

 |     |      |     |      |     |      |     |      |     |      
|------------|------------|------------|1-----------|--1-3-5h3-1-|
|--0---0-----|--1-----1---|------------|--1---------|1-----------|
|--0---0-----|--0-----0---|--0---------|----2-----2-|------------|
|----3-2h--0-|----2-----2-|----2-0h--2-|------2h3---|------------|
|5-----------|3-----2-----|3-----------|------------|------------|
|------------|------------|------------|1-----------|------------|

 |     |      |     |      |     |      |     |      |     |      
|0-----------|--0-1-3h1-0-|------------|------------|------------|
|------------|1-----------|3-----------|--3-5-6h5-3-|--1-----1---|
|----------0-|------------|------------|4-----------|--0-----0---|
|--2h0-2h3---|------------|----------3-|------------|----2-----2-|
|3-----------|------------|--------5---|------------|3-----------|
|------------|------------|--5h4-3-----|------------|------3-----|

 |     |      |     |      |     |      |     |      |     |      
|------0-----|------------|------------|----------3-|7h5-3-------|
|------0-----|--1-----1---|------------|--------3---|------6h5-3-|
|------1-----|--2-----2---|------------|------4-----|------------|
|------0-----|----2-----2-|------------|----3-------|------------|
|3-----------|0-----------|0-----------|--5---------|------------|
|------------|------0-----|------5h--4-|3-----------|------------|

 |     |      |     |      |     |      |     |      |     |      
|----------3-|------------|------------|------------|--------0---|
|5-------5---|6h5-3-------|------------|0-----------|--1-----3h1-|
|--5---5-----|------5h4-2-|0---------0-|--2h0-------|----0---0---|
|----5-------|------------|--3-----3---|------3h2-0-|------2-----|
|3-----------|------------|----2h5-----|------------|3-----------|
|------------|------------|------------|------------|------------|

 |     |      |     |      |     |      |     |      |     |      
|--------0---|--------0---|------------|----------0-|3h1-0-------|
|--0-----1h0-|--1-----3h0-|--0-----1h0-|1-----------|------3h1-0-|
|----0---0---|----0---0---|----0-------|0-----------|------------|
|------3-----|------2-----|------3-----|2-----2-----|------------|
|2-----------|3-----------|2-----------|3-----------|3-----2-----|
|------------|------------|------------|------------|------------|


 |     |      |     |      |     |      |     |      |     |      
|----------0-|5h3---------|------------|------------|----------3-|
|--------1---|----6-5h3---|--------3-5-|6h5-4-------|--------3---|
|2-----2-----|----------5-|4-----4-----|------5h4---|------4-----|
|----2-------|------------|----3-------|----------7-|5---5-------|
|0h3---------|------------|--5---------|------------|--5---------|
|------------|5-----4-----|3-----------|5-----4-----|3-----------|

 |     |      |     |      |     |      |     |      |     |      
|7h5-3-------|------3---0-|------------|--------0-5-|3h2-0-2h--0-|
|------6h5-3-|------5-----|3h1-0-1h--0-|------1-----|------2-----|
|------------|--5---5-----|------1-----|----2-------|------0-----|
|3-----------|----5-------|------0-----|--2---------|------------|
|------------|3-----------|------------|0-----------|------0-----|
|------3-----|------------|0-----------|------------|------------|

 |     |      |     |      |     |      |     |      |     |      
|------------|----------0-|1-----------|0-----3---1-|0-----------|
|3-----------|3---0-1-3---|--0-------0-|--0-----0---|--1-------1-|
|--------2---|--2---------|----0---0---|----0-------|----0---0---|
|----0-----0-|------------|------3-----|------------|------2-----|
|------0-----|------------|------------|------------|3-----------|
|--2---------|------------|3-----------|------------|------------|


 |     |      |     |      |     |      |     |      |     |      
|0-------0-2-|3-----------|2-----0---3-|2-----------|2-----------|
|--0-1-3-----|--2-------2-|--2-----2---|--3-------3-|--3-------0-|
|------------|----0---0---|----0-------|----2---2---|----2---0---|
|------------|------2-----|------------|0-----------|0-----------|
|------------|0-----------|------------|------0-----|------0-----|
|------------|------------|------------|------------|------------|

 |     |      |     |      |     |      |     |      |     |      
|8-----------|12----10--8-|7-----------|--7-8-108-7-|5-----------|
|--8-------8-|--8-----8---|------------|8-----------|------------|
|----9---9---|----9-------|----------7-|------------|----------5-|
|------10----|------------|--9h7-9h10--|------------|--------7---|
|------------|------------|------------|------------|--7h6-5-----|
|8-----------|------------|7-----------|------------|5-----------|

 |     |      |     |      |     |      |     |      |     |      
|--5-7-8h7-5-|------------|------2-----|0-----------|0-----2h0-3-|
|7-----------|8-----------|8-----0-----|--0-------0-|------0-----|
|------------|--------7---|------2-----|----0---0---|------0-----|
|------------|----5-----5-|------------|------2-----|------2-----|
|------------|------5-----|------2-----|------------|------------|
|------------|--7---------|------------|0-----------|------------|


 |     |      |     |      |     |      |     |      |     |      
|2h2-0-------|0-------0---|------------|------2-5-3-|2h2---------|
|----------0-|------0---3-|1h0---------|----1-------|----5-------|
|--------0---|----1-------|----2-------|--2---------|----------3-|
|------2-----|--2---------|------------|2-----------|--------4---|
|------------|------------|------0h2-3-|------------|------3-----|
|0-----------|------------|------------|------------|------------|

 |     |      |     |      |     |      |     |      |     |      
|--2h5-0h3-2-|------------|------2h0-3-|2h2-0-------|0---------8-|
|5-----------|1h1-0-------|0-----------|----------0-|--------9---|
|------------|----------2-|------------|--------0---|------7-----|
|------------|--------1---|----1-------|------2-----|----9-------|
|------------|------2-----|------------|------------|--7---------|
|------------|------------|------------|0-----------|------------|

 |     |      |     |      |     |      |     |      |     |      
|7h7---------|------------|8-----------|----8-----8-|7-----------|
|----10------|10----8-1012|----10------|--10--10----|----8-------|
|----------9-|--9-11------|------10----|10------10--|------9-----|
|--------10--|------------|----------10|------10----|----------9-|
|------0-----|------------|------------|------------|------------|
|------------|------------|------------|------------|0-----------|


 |     |      |     |      |     |      |     |      |     |      
|----7-----7-|------------|------------|------------|------2h0---|
|--8---8-----|11--------11|10--------10|8-----8-----|------0---4-|
|9-------9---|--------9---|--------8---|------------|------0-----|
|------9-----|------10----|------9-----|------------|------------|
|------------|------------|------------|------------|------------|
|------------|----8-------|7---7-------|0-----0-----|------------|

 |     |      |     |      |     |      |     |      |     |      
|0-----------|2-----3-----|7-----5-----|3-----2-----|0-----------|
|--0-------0-|--0-----0---|--5-----2---|--0-----0---|--0-------0-|
|----0---0---|----0-----0-|----6-----0-|----0-----2-|----0---0---|
|------2-----|------------|------------|------------|------2-----|
|------------|------------|0-----------|------2-----|------------|
|0-----------|------------|------------|------------|0-----------|

 |     |      |     |      |     |      |     |      |     |      
|2-----3-----|7-----------|5-----0-----|3-----------|0-----2---3-|
|--0-----0---|--5-------5-|--5-----0---|--0-------0-|--0-----0---|
|----0-----0-|----6---6---|----6-----0-|----0---0---|----0-------|
|------------|------5-----|------------|------2-----|------------|
|------------|0-----------|------------|------------|------------|
|------------|------------|------------|0-----------|------------|


 |     |      |     |      |     |      |     |      |     |      
|7---------7-|5-----3-----|2-----------|2-----------|----0-------|
|--6---------|--5-----3---|--2-------2-|------------|------7-----|
|----7---7---|----6-----4-|----3---3---|----0-----0-|------0-----|
|------5-----|------------|------4-----|------------|------8-----|
|------------|------------|------------|------9-----|9-----9-----|
|------------|5-----3-----|2-----------|------------|------------|

 |     |      |     |      |     |      |     |      |     |      
|------------|------------|------------|------------|------------|
|0-----------|------------|--0---------|--0---------|------0-----|
|------------|------0-----|--0---------|--0---------|----0---3h0-|
|------------|------0-----|--------7-9-|11----------|--0---------|
|--------7-9-|10----10----|----9-10----|0-------0-1-|2-----------|
|--7-9-10----|------7-----|------------|----2-3-----|------------|

 |     |      |     |      |     |      |     |      |     |      
|------------|------------|------------|0-----------|------------|
|------------|----------2-|2h0-------2-|--3-2-0---2-|0-----------|
|----------0-|------------|----3---3---|--------3---|--2h0-------|
|----4-3h4---|4-----4-----|------4-----|------------|------0---0-|
|--4---------|4-----------|------------|------------|--------2---|
|2-----------|2-----------|------------|------------|3-----------|


 |     |      |     |      |     |      |     |      |     |      
|------------|------------|------------|------------|------------|
|------0-3-2-|0h0-----2---|--------0---|------------|----------2-|
|0---0-------|----2-----4-|2h2-0-----3-|0h0-------0-|------------|
|--0---------|------2-----|------0-----|----4---4---|4-----4-----|
|------------|0-----------|------------|------4-----|4-----------|
|------------|------------|3-----------|2-----------|2-----------|

 |     |      |     |      |     |      |     |      |     |      
|------------|0-----------|------------|--------0-2-|3-----2-----|
|2h0-------2-|--3-2-0---2-|0-----------|--0-2-3-----|--2-----2---|
|----3---3---|--------3---|--2h0-------|0-----------|----0-----0-|
|------4-----|------------|------0---0-|------------|------------|
|------------|------------|--------2---|------------|0-----------|
|------------|------------|3-----------|------------|------------|

 |     |      |     |      |     |      |     |      |     |      
|0-----5---3-|2h0---------|------0h3-2-|0-----------|0-----------|
|--2---------|----3---3---|3---3-------|--1-------1-|--3-1-0---1-|
|----0-------|----------2-|--2---------|----0---0---|--------2---|
|------------|------0-----|------------|------2-----|------------|
|------------|------------|------------|3-----------|------------|
|------------|------------|------------|------------|------------|


 |     |      |     |      |     |      |     |      |     |      
|------------|------------|------------|------------|------------|
|0-----------|0-----0-3-2-|0h0-----2---|--------0---|------------|
|--0-------0-|--0---------|----2-----4-|2h2-0-----3-|0h0-------0-|
|----0---0---|----0-------|------2-----|------0-----|----4---4---|
|------2-----|------------|0-----------|------------|------4-----|
|3-----------|------------|------------|3-----------|2-----------|

 |     |      |     |      |     |      |     |      |     |      
|----------2-|3h3---------|----------3-|2h2-0-------|0-----9h107-|
|------4h5---|------7---5-|4-------4---|----------0-|------------|
|------------|------------|------2-----|--------0---|------------|
|4-----------|------------|----4-------|------2-----|------------|
|------------|------------|--2---------|------------|------------|
|------------|3-----------|------------|0-----------|------------|

 |     |      |     |      |     |      |     |      |     |      
|8h8---------|----------8-|7h7---------|------------|8-----------|
|------12--10|9-------9---|----10------|10----8h1012|----10------|
|------------|------7-----|----------9-|--9-11------|------10----|
|------------|----9-------|--------10--|------------|----------10|
|8-----------|--7---------|------0-----|------------|------------|
|------------|------------|------------|------------|------------|


 |     |      |     |      |     |      |     |      |     |      
|----8-----8-|7-----------|----7-----7-|------------|------------|
|--10--10----|----8-------|--8---8-----|11--------11|10--------10|
|10------10--|------9-----|9-------9---|--------9---|--------8---|
|------10----|----------9-|------9-----|------10----|------9-----|
|------------|------------|------------|------------|------------|
|------------|0-----------|------------|----8-------|7---7-------|

 |     |      |     |      |     |      |     |      |     |      
|------------|------2h0-3-|2h2-0-------|0-2h5-0h3-2-|------------|
|8-----------|------0-----|----------0-|------------|1h1-0-------|
|------------|------0-----|--------0---|------------|----------2-|
|------------|------2-----|------2-----|------------|--------1---|
|------------|------------|------------|------------|------2-----|
|0-----------|------------|0-----------|------------|------------|

 |     |      |     |      |     |      |     |      |     |      
|------108-7-|------------|----------8-|7h7---------|------------|
|0-----------|10----9-----|--------9---|----10------|10----8-1012|
|------------|8-----7-----|------7-----|----------9-|--9-11------|
|----0-------|10----9---9-|----9-------|--------10--|------------|
|------------|8-----7-----|8h7---------|------0-----|------------|
|------------|------------|------------|------------|------------|


 |     |      |     |      |     |      |     |      |     |      
|8-----------|----8-----8-|7-----------|----7-----7-|------------|
|----10------|--10--10----|----8-------|--8---8-----|11--------11|
|------10----|10------10--|------9-----|9-------9---|--------9---|
|----------10|------10----|----------9-|------9-----|------10----|
|------------|------------|------------|------------|------------|
|------------|------------|0-----------|------------|----8-------|

 |     |      |     |      |     |      |     |      |     |      
|------------|------------|----7-------|0-----------|----7-------|
|10--------10|8-----8-----|--6---109---|--0-------0-|--6---109---|
|--------8---|------------|8---------10|----9---9---|8---------10|
|------9-----|------------|------------|------------|------------|
|------------|------------|------------|------7-----|------------|
|7---7-------|0-----0-----|------------|0-----------|------------|

 |     |      |     |      |     |      |     |      |     |      
|0-----------|0-----7h5-7-|5-----5h3-5-|3-----3h1-3-|1h1-0-------|
|--0-------0-|------------|------------|------------|----------0-|
|----9---9---|------------|------4-----|------2-----|--------1---|
|------7-----|------------|----5-------|----3-------|------2-----|
|------------|------------|------------|------------|------------|
|0-----------|------5-----|3-----------|1-----------|0-----------|


 |     |      |     |      |     |      |     |      |     |      
|0-----7h5-7-|5-----5h3-5-|3-----3h1-3-|1h1-0-------|0-----121013|
|------------|------------|------------|----------0-|------------|
|------------|----4-------|----2-------|--------1---|------12----|
|------------|--5---------|--3---------|------2-----|------------|
|------------|------------|------------|------------|------------|
|------5-----|3-----------|1-----------|0-----------|------------|

 |     |      |     |      |     |      |     |      |     |      
|12108-------|8-1012131210|7h5---------|0h1-3-5h7-5-|5h3-1-----1-|
|----------8-|------------|----8-0h1-3-|------------|------3h5---|
|--------9---|------------|0-----------|------------|------------|
|------10----|------0-----|------------|------------|------------|
|------------|------------|------------|------------|------------|
|8-----------|------------|------------|------------|1-----------|

 |     |      |     |      |     |      |     |      |     |      
|----3-----5-|------------|------121013|12108-------|8-----108---|
|5h6---6h8---|9h6-------6-|------------|----------8-|----11----11|
|3-----5-----|----9---9---|9-----12----|--------9---|------------|
|------------|------9-----|9-----------|------10----|------------|
|3-----5-----|------------|------------|------------|------------|
|------------|0-----------|------------|8-----------|--8---------|


 |     |      |     |      |     |      |     |      |     |      
|----------8-|1312108h7-5-|7h8-7-5h7-5-|--3---1-----|0-----------|
|108-----10--|------------|------------|----------4-|--0-------0-|
|----10------|------------|7-----5-----|4---2-------|----1---1---|
|------10----|------------|------------|--------3---|------2-----|
|8-----------|------------|------------|------------|------------|
|------------|------------|------------|------------|0-----------|

 |     |      |     |      |     |      |     |      |     |      
|0-----------|----0-------|------------|----0-3h0-0-|------------|
|------3-----|1-----3h1-0-|------------|1-----------|--------0-3-|
|------0-----|0-----------|2-----4-----|0-----------|2h0-0h2-----|
|------3-----|2-----------|3-----5-----|2-----------|----3-------|
|------2-----|3-----------|------------|3-----------|------------|
|------------|------------|1-----3-----|------------|--3-3-------|

 |     |      |     |      |     |      |     |      |     |      
|----0-------|------------|--1h0-------|------------|0-----------|
|1h3---3h1-0-|----0-------|------3h1-0-|----1---1---|--0-------0-|
|0-----------|2-----2h1---|------------|2h4-----1---|----1---1---|
|2-----------|----------3-|------------|----------3-|------------|
|3-----------|------------|------------|------3-----|------2-----|
|------------|--1---------|0-----------|1-----------|0-----------|


 |     |      |     |      |     |      |     |      |     |      
|0-----------|------------|------------|12----------|10----13--12|
|------------|------------|------10----|--10------10|--10--------|
|------------|------------|------------|----10--10--|----10------|
|2-----2-----|------------|12----------|------10----|------------|
|------------|------10----|------------|------------|------------|
|------------|8h----------|------------|0-----------|------------|

 |     |      |     |      |     |      |     |      |     |      
|12----------|12----------|------------|------------|12----------|
|--9-------9-|------------|------------|------10----|--10------10|
|----9---9---|------------|------------|------------|----10--10--|
|------9-----|------9-----|------------|12----------|------10----|
|------------|------------|------10----|------------|------------|
|0-----------|------------|8h----------|------------|0-----------|

 |     |      |     |      |     |      |     |      |     |      
|10----13--12|12----------|12----109-10|8h8-7-------|7-----109-10|
|--10--------|--9-------9-|------10----|----------9-|------10----|
|----10------|----9---9---|------10----|--------9---|------10----|
|------------|------9-----|------0-----|------9-----|------0-----|
|------------|------------|------------|------------|------------|
|------------|0-----------|------------|0-----------|------------|


 |     |      |     |      |     |      |     |      |     |      
|8h8-7-------|0-------7-10|8h8-7-------|7-----7h5-7-|5-----5h3-5-|
|------9h10--|----9-10----|----------9-|------------|------------|
|----------10|--10--------|--------9---|------------|------4-----|
|------------|------------|------9-----|9-----------|----5-------|
|------------|------------|------------|------------|------------|
|0-----------|------------|0-----------|------5-----|3-----------|

 |     |      |     |      |     |      |     |      |     |      
|3-----3h1-3-|1h1-0-------|0-----7h5-7-|5-----5h3-5-|3-----3h1-3-|
|------------|----------0-|------------|------------|------------|
|------2-----|--------1---|------------|----4-------|----2-------|
|----3-------|------2-----|------------|--5---------|--3---------|
|------------|------------|------------|------------|------------|
|1-----------|0-----------|------5-----|3-----------|1-----------|

 |     |      |     |      |     |      |     |      |     |      
|1h1-0-------|0-----------|------------|--------5---|------------|
|----------0-|------6h5-3-|3-----2-----|------5---8-|6h5---------|
|--------1---|------------|3-----2-----|----6-------|----7---7---|
|------2-----|------------|3-----2---0-|--5---------|----------7-|
|------------|------------|5-----0-----|------------|------5-----|
|0-----------|------------|4-----------|5-----------|------------|


 |     |      |     |      |     |      |     |      |     |      
|8h8-7-------|0-------7-10|8h8-7-------|7-----7h5-7-|5-----5h3-5-|
|------9h10--|----9-10----|----------9-|------------|------------|
|----------10|--10--------|--------9---|------------|------4-----|
|------------|------------|------9-----|9-----------|----5-------|
|------------|------------|------------|------------|------------|
|0-----------|------------|0-----------|------5-----|3-----------|

 |     |      |     |      |     |      |     |      |     |      
|3-----3h1-3-|1h1-0-------|0-----7h5-7-|5-----5h3-5-|3-----3h1-3-|
|------------|----------0-|------------|------------|------------|
|------2-----|--------1---|------------|----4-------|----2-------|
|----3-------|------2-----|------------|--5---------|--3---------|
|------------|------------|------------|------------|------------|
|1-----------|0-----------|------5-----|3-----------|1-----------|

 |     |      |     |      |     |      |     |      |     |      
|1h1-0-------|0-----------|------------|--------5---|------------|
|----------0-|------6h5-3-|3-----2-----|------5---8-|6h5---------|
|--------1---|------------|3-----2-----|----6-------|----7---7---|
|------2-----|------------|3-----2---0-|--5---------|----------7-|
|------------|------------|5-----0-----|------------|------5-----|
|0-----------|------------|4-----------|5-----------|------------|


 |     |      |     |      |     |      |     |      |     |      
|5-----6h5-3-|------------|--------3-6-|5h3---------|------5h4-5-|
|6-----------|6h5-3-5-----|5-----5-----|----6-------|6-----5-----|
|7-----------|----------3-|----3-------|----------5-|------3-----|
|------------|------------|--5---------|--------3---|------------|
|------------|--------3---|------------|------------|------0-----|
|------------|------------|------------|------5-----|------------|

 |     |      |     |      |     |      |     |      |     |      
|3h3-------3-|----3-5h4-5-|3---------0-|----0-3h2-3-|1---------0-|
|------------|5h6---5-----|--3---------|2h3---------|--3---------|
|----3---3---|------3-----|----3---3---|------------|----3---3---|
|------3-----|------------|------3-----|------------|------3-----|
|------------|------------|0-----------|------------|------------|
|0-----------|------------|------------|------------|------------|

 |     |      |     |      |     |      |     |      |     |      
|------------|0-----------|0-----121012|10----108-10|8-----8h6-8-|
|3h2-3-6h5-6-|--2-------2-|------10----|------8-----|------6-----|
|3-----3-----|----2---2---|------10----|------9-----|------7-----|
|------------|------2-----|------10----|----8-------|----6-------|
|0-----------|0-----------|------------|------------|------------|
|------4-----|------------|------------|------------|------------|


 |     |      |     |      |     |      |     |      |     |      
|6h6-5-------|5-----121012|10----108-10|8-----8h6-8-|6h6-5-------|
|----------5-|------10----|------8-----|------6-----|----------5-|
|--------6---|------10----|----9-------|----7-------|--------6---|
|------7-----|------10----|--8---------|--6---------|------7-----|
|------------|------------|------------|------------|0-----------|
|0-----------|------------|------------|------------|------------|

 |     |      |     |      |     |      |     |      |     |      
|5---------0-|------------|----------1-|0h0---------|1-----------|
|------2h3---|3-----2-----|--------2---|----3-----3-|------6h5-3-|
|------------|0-----0-----|------0-----|--------2---|------------|
|------------|2-----2-----|----2-------|------0-----|------------|
|------------|1-----0-----|1h0---------|------------|------------|
|------------|------------|------------|------------|------------|

 |     |      |     |      |     |      |     |      |     |      
|------------|--------3---|------------|3---------3-|5-----4-----|
|------------|------3---6-|5h3-------5-|----3-5-6---|--0-----0---|
|5h4-3-4-----|4---4-------|----5---5---|--5---------|----5-----5-|
|----------3-|------------|------5-----|------------|3-----------|
|------------|--5---------|3-----------|------------|------------|
|--------3---|------------|------------|------------|------------|


 |     |      |     |      |     |      |     |      |     |      
|5-----8-7-7-|7h5-4-------|4-----7h5-7-|5-----5h3-5-|3-----3h1-3-|
|--0---------|----------5-|------------|------------|------------|
|----5-------|--------4---|----4-------|------4-----|------2-----|
|3-----------|------6h----|--7---------|----5-------|----3-------|
|------------|------------|------------|------------|------------|
|------------|0-----------|------5-----|3-----------|1-----------|

 |     |      |     |      |     |      |     |      |     |      
|1h1-0-------|0-----7h5-7-|5-----5h3-5-|3-----3h1-3-|1h1-0-------|
|----------0-|----0-------|------------|------------|----------0-|
|--------1h--|--2---------|----4-------|----2-------|--------1---|
|------2-----|------------|--5---------|--3---------|------2-----|
|------------|------------|------------|------------|------------|
|0-----------|------5-----|3-----------|1-----------|0-----------|

 |     |      |     |      |     |      |     |      |     |      
|0-----------|------------|------------|------------|------------|
|------------|--------1---|--------1---|--------1---|--------1---|
|------------|----0-----0-|----0-------|----0-----0-|----0-------|
|--3h2-0-2h0-|--2---2-----|--2---2-----|--2---2-----|--2---2-----|
|------------|3-----------|3---------3-|2-----------|2---------2-|
|------------|------------|------------|------------|------------|


 |     |      |     |      |     |      |     |      |     |      
|------------|------------|------------|------------|------------|
|--------1---|--------1---|--------1---|--------1---|--------3---|
|----0-----0-|----2-------|----2-----2-|----2-----2-|----2-----2-|
|--2---2-----|--2---2-----|--3---3-----|--3---3-----|--4---4-----|
|1-----------|1---------1-|0-----------|0-----------|5-----------|
|------------|------------|------------|------------|------------|

 |     |      |     |      |     |      |     |      |     |      
|------------|------------|------------|------------|------------|
|--------3---|--------3---|--------2---|--------3---|--------3---|
|----2-------|----2-----2-|----2-------|----2-----2-|----2-------|
|--4---4-----|--4---4-----|--4---4-----|--4---4-----|--4---4-----|
|5---------5-|4-----------|4---------4-|3-----------|3---------3-|
|------------|------------|------------|------------|------------|

 |     |      |     |      |     |      |     |      |     |      
|------------|------------|1-----------|--1-3-5h3-1-|0-----------|
|--------3---|--------3---|--1---------|1-----------|------------|
|----0-----0-|----0-----0-|----2-----2-|------------|----------0-|
|--0---0-----|--0---0-----|------2h3---|------------|--2h0-2h3---|
|2-----------|2-----------|------------|------------|3-----------|
|------------|------------|1-----------|------------|------------|


 |     |      |     |      |     |      |     |      |     |      
|--0-1-3h1-0-|------------|------------|------------|------------|
|1-----------|3-----------|--3-5-6h5-3-|1-----------|------------|
|------------|------------|4-----------|0-----------|------2-----|
|------------|----------3-|------------|2-----------|0-----------|
|------------|--------5---|------------|3-----------|------------|
|------------|--5h4-3-----|------------|------3-----|------------|

 |     |      |     |      |     |      |     |      |     |      
|0-----1-----|------------|------------|------------|12----13----|
|------0-----|3-----0-----|1-----------|------10----|------13----|
|------0-----|0-----0-----|0-----------|------------|------10----|
|------0-----|3-----0-----|2-----------|12----------|------------|
|------------|2-----------|3-----10----|------------|------12----|
|------------|------3-----|------------|------------|------------|

 |     |      |     |      |     |      |     |      
|10----------|------------|------------|------------|
|12----12----|13----------|----------1-|1-----------|
|10----10----|12----------|0---------0-|0-----------|
|------12----|10----------|3---------2-|2-----------|
|11----10----|------------|2---------3-|3-----------|
|------------|12----3-----|3-----3-----|------------|


Created with TablEdit http://www.tabledit.com/
Tap to rate this tab
# A B C D E F G H I J K L M N O P Q R S T U V W X Y Z