Song name
# A B C D E F G H I J K L M N O P Q R S T U V W X Y Z

Joselo - De Paso tab

Band: Joselo
Song: De Paso


tabbed by jam9383@yahoo.com


Part A

e---------------------------------------------------------------------|
B---------------------------------------------------------------------|
G--11-11-11-11-11-11-11-11--------------------------------------------|
D--11-11-11-11-11-11-11-11--------------------------------------------|
A--9--9--9--9---9--9--9--9--------------------------------------------|
E---------------------------------------------------------------------|

Part B

e---------------------------------------------------------------------|
B--9-9-9-9-9-9-9-9----------------------------------------------------|
G--9-9-9-9-9-9-9-9----------------------------------------------------|
D--9-9-9-9-9-9-9-9----------------------------------------------------|
A--7-7-7-7-7-7-7-7----------------------------------------------------|
E---------------------------------------------------------------------|

Part C

e---------------------------------------------------------------------|
B---------------------------------------------------------------------|
G-------4-5---7---5----4-5----7---------------------------------------|
D---5-7---------------------------------------------------------------|
A---------------------------------------------------------------------|
E---------------------------------------------------------------------|

Part D

e---------------------------------------------------------------------|
B--4-4-4-4-6-6-6-6-2-2-4-4-4-4----------------------------------------|
G--4-4-4-4-6-6-6-6-2-2-4-4-4-4----------------------------------------|
D--4-4-4-4-6-6-6-6-2-2-4-4-4-4----------------------------------------|
A--2-2-2-2-4-4-4-4-0-0-2-2-2-2----------------------------------------|
E---------------------------------------------------------------------|

Part E

e--1-1-1-1---1-1-1-1--------------------------------------------------|
B--1-1-1-1---1-1-1-1--------------------------------------------------|
G--2-2-2-2---2-2-2-2--------------------------------------------------|
D--3-3-3-3---3-3-3-3--------------------------------------------------|
A--3-3-3-3---3-3-3-3--------------------------------------------------|
E--1-1-1-1---1-1-1-1--------------------------------------------------|

Part F

e---------------------------------------------------------------------|
B---------------------------------------------------------------------|
G-------4-5---7---5----4-5----7---------4-5----7----5---4-5-----------|
D---5-7----------------------------5-7----------------------7---------|
A---------------------------------------------------------------------|
E---------------------------------------------------------------------|

Part G

e--5--3--0---8----------------|-----------8---------------------------|
B--------------8-8--10-8-5----|---8-10-5----8-8-8-8-------------------|
G-----------------------------|---------------------------------------|
D-----------------------------|---------------------------------------|
A-----------------------------|---------------------------------------|
E-----------------------------|---------------------------------------|

Order--
Section 1 A->B
Section 2 A+C-->B+C
Section 3 D--->E
Section 4 F
Section 5 G
Section 6 E
Tap to rate this tab
# A B C D E F G H I J K L M N O P Q R S T U V W X Y Z