Guitaretab - guitar tabs
Song name
# A B C D E F G H I J K L M N O P Q R S T U V W X Y Z

Joseph Arthur - Electrical Storm tab

Electrical Storm  Joseph Arthur

No Capo
INTRO/VERSE
 
      D      Dsus4
e|---2-----------3-2----2----2--------3-2----2-----------------|
B|------3-------------3---3-----3----------3---3---------------|
G|---------2-----------------------2---------------------------|
D|---0-----------0-----------0--------0------------------------|  (X2)
A|-------------------------------------------------------------|
E|-------------------------------------------------------------| 

      A7sus4*
e|---2---------2---------2-------2--------2---------2----------|
B|------3---------3---------3-------3--------3-----------3-----|
G|---------0---------0-----------------0--------0--------------|
D|---2---------2---------2-------2--------2---------2----------|
A|-------------------------------------------------------------|
E|-------------------------------------------------------------|
[ Tab from: http://www.guitaretab.com/j/joseph-arthur/175729.html ]
CHORUS   
       G/F#                  D4
e|---2-----------2---------2-------2--------2---------2------------|
B|------3-----------3---------3-------3--------3---------3---------|
G|---------0-----------0-----------------0--------0---------0------|
D|-----------------------------------------------------------------|
A|---2-----------2---------2-------0--------0---------0------------|
E|-----------------------------------------------------------------|

e|---2-----------2---------2-------2----------2---------2----------|
B|------3-----------3---------3-------3----------3----------3------|
G|---------0-----------0-----------------0----------0--------------|
D|-----------------------------------------------------------------|
A|-----------------------------------------------------------------|
E|---3-----------3---------3-------3----------3---------3----------|

  
*A7sus4 [addF#]  (002032)
G/F#  (220033)
D4    (000033)
Related for Electrical Storm tab