Guitaretab - guitar tabs
Song name
# A B C D E F G H I J K L M N O P Q R S T U V W X Y Z

Joseph Arthur - Invisible Hands tab

Tuning: Standard EADGBE
Artist: Joseph Arthur
Track: Invisible Hands

This is the tabbed version of Invisible Hands from the movie 'Hell's Kitchen' and 'Gia' 
starring Angelina Jolie ha!

NOTE: These are the 3 basic chords:

E |--x-----0-----0-------|
B |--3-----0-----0-------|
G |--2-----2-----0-------|
D |--0-----2-----0-h2----|
A |--x-----0-----0-------|
E |--3-----x-----0-------|

Just keep repeating this progression:

E |-----------------------------------------------------------------|
B |---------3-----------3-----------------0-----------3 w/bend------|
G |---------2-----------2-----------------2-----------2-------------|
D |------0-----------0-----------------2-----------2----------------|
A |---------------------------------0--------0--0-------------------|
E |---3--------3--3--------3----------------------------------------|

[ Tab from: ]
E |-----------------------------------------------------------------|
B |-----------------------------------------------------------------|
G |-------------0-----0--------0------------------0-----0-----------|
D |----0--0 h2-----2-----0 h2------------0--0 h2-----2-----0 h2-----|
A |-----------------------------------------------------------------|
E |-0---------------------------------0-----------------------------|


There are things we cannot know
Invisible hands which guide the show from up above
And sometimes you are forced to go
Far away and shut the door
On the one you love
Well I don't know now where you are
Your photograph sits like a scar against my wall
Such a pretty face
The sunshine in your eyes
Taken on that day
When all we had was love

Shut the light on me

Now Jesus he came down here just to die for all my sins
I need him to come back here and die for me again
Cause I cannot forgive myself for what it is I've done
Avoiding your memory like a vampire does the sun
And all I want's your love
All I want's your love

Shut the light on me
Related for Invisible Hands tab