Song name
# A B C D E F G H I J K L M N O P Q R S T U V W X Y Z

Joseph Arthur - Leave Us Alone chords

Highlighted       Show chord diagrams
Artist - Joseph Arthur 
Year - 2004
Song - Leave us alone tab & chords (acoustic version)
Tab - Gioacchino La Rochelle
Capo on the 2nd

INTRO AND VERSE

e-0p1------1-------0---------0------0--------0----|
B------3-----------------6---------------1--------|
G-----2--------2-------0---------0-----2--------2-|
D--------0---0-------0-----0---0-----2-----2---2--|
A-------------------------------------------------|
E-------------------------------------------------|
  D-              G6                 A- (x2)

CHORUS

e--------------------|
B----0---------1-----|
G---------2--------2-|
D--2-----2---2-------|
A-2-----0---0----0---|
E--------------------|
 E-     A- (x2) 

VERSE 1

Dm	G6                 Am	
He was cut and then there was no fear
The dogs of hell within unborn
And like a ghost without an atmosphere
His voice sang without a song

CHORUS

Em  Am 
Go away
Em        Am 
Leave us alone
Em  	     Am 
We don't know ya
	C (plays as the prechorus)
Who you are
   G	
So far
Am
From home

C E- A- G6
m m m m m m  

VERSE 2

He stands before them as they judge his life
His shadow reaching underneath
He will fight he will reveal his knife
They will question his belief

They will shatter all his teeth
Blood from his mouth in darkness he can see
His suicide his love reborn
And hangin from a noose in secrecy
His mind and spirit will divorce

CHORUS 

Go away
Leave us alone
We don't know ya
Who you are
So far
From home
Tap to rate this tab
 
# A B C D E F G H I J K L M N O P Q R S T U V W X Y Z