Song name
# A B C D E F G H I J K L M N O P Q R S T U V W X Y Z

Joseph Arthur - Real You tab

----------------------------------------------------------------------- 
                      The Real You - Joseph Arthur
-----------------------------------------------------------------------
Tabbed by: Pascal M Frenette
Email: ludohvik@msn.com
Tuning : EADGBe (Standard)

The song is only a simple riff with a bridge in the middle. Pretty easy. I put the
number of times you should play the riff but you can just erase them and just print
the lyrics. 

Main Riff
e|------------------|------------------|
B|------------------|------------------|
G|-----0-----0------|-----0-----0------|
D|---------------0--|---------------0--|
A|---2---2/4---4---\|---2---2/4---4---\|
E|-3----------------|-3----------------|

Bridge (Been down in my mind)
e|------------------|------------------|
B|------------------|------------------|
G|.----------0-----.|.----------0-----.|
D|.----3---------3-.|.----5-----5---5-.| each twice
A|--1----1-1---1----|-/3----3-3---3----|
E|------------------|------------------|

-----------------------------------------------------------------------
Tap to rate this tab
# A B C D E F G H I J K L M N O P Q R S T U V W X Y Z