Song name
# A B C D E F G H I J K L M N O P Q R S T U V W X Y Z

Joseph Arthur - A Smile That Explodes tab

A Smile That Explodes
Joseph Arthur

Tabbed by entspeak

Standard tuning
Capo on the 5th fret (this is how I saw him playing it in a video)


Verses

|---------------------------|---------------------------|---------------------------|---------------------------|
|-----------------0---------|-----------------0---------|-----------------0---------|-----------------0---------|
|--------0--------------0---|--------0--------------0---|--------0--------------0---|--------0--------------0---|
|-----4--------4------------|-----4--------4------------|-----0--------0------------|-----0--------0------------|
|--2--------2--------2------|--0--------0--------0------|---------------------------|---------------------------|
|---------------------------|---------------------------|--3--------3--------3------|--3--------3--------3------|

Last line of the verse is:

|---------------------------|---------------------------|---------------------------|---------------------------|
|---------------------------|-----------------0---------|-----------------0---------|-----------------0---------|
|--------0--------0---------|--------0--------------0---|--------0--------------0---|--------0--------------0---|
|-----4--------4--------4---|-----4--------4------------|-----0--------0------------|-----0--------0------------|
|--2--------2--------2------|--0--------0--------0------|---------------------------|---------------------------|
|---------------------------|---------------------------|--3--------3--------3------|--3--------3--------3------|


"Cause it ain't easier":

|---------------------------|---------------------------|---------------------------|---------------------------|
|-----------------0---------|-----------------0---------|-----------------0---------|-----------------0---------|
|--------0--------------0---|--------0--------------0---|--------0--------------0---|--------0--------------0---|
|-----2--------2------------|-----2--------2------------|-----0--------0------------|-----0--------0------------|
|--3--------3--------3------|--3--------3--------3------|---------------------------|---------------------------|
|---------------------------|---------------------------|--3--------3--------3------|--3--------3--------3------|

Chorus:

|---------------------------|---------------------------|---------------------------|---------------------------|
|-----------------1---------|-----------------0---------|-----------------0---------|-----------------1---------|
|--------2--------------2---|--------0--------------0---|--------0--------------0---|--------2--------------2---|
|-----2--------2------------|-----2--------2------------|-----0--------0------------|-----2--------2------------|
|--0--------0--------0------|---------------------------|---------------------------|--0--------0--------0------|
|---------------------------|--0--------0--------0------|--3--------3--------3------|---------------------------|
Tap to rate this tab
# A B C D E F G H I J K L M N O P Q R S T U V W X Y Z