Guitaretab - guitar tabs
Song name
# A B C D E F G H I J K L M N O P Q R S T U V W X Y Z

Joseph Kuffner - Sonatina tab

Joseph Kuffner  Sonatina

Tabbed by Uchiha23

[ Tab from: http://www.guitaretab.com/j/joseph-kuffner/90753.html ]
e|-0-0-----|---------|-1-1-0-0-|---------|-0-0-----|---------|-----------|-----|
B|-1-1-3-3-|-1-------|-3-3-1-1-|-3-------|-1-1-3-3-|-1-------|-----0-0h3-|-1---|
G|-----0-0-|-----0---|---------|-0-------|-----0-0-|-----0---|-2-2-0-----|-----|
D|---------|-2---2---|---------|---------|---------|-2---2---|-3-3-------|-2---|
A|---------|---------|---------|---------|---------|---------|-----------|-----|
E|---------|---------|---------|---------|---------|---------|-----3-----|-----|

Repeat

e|-----0-0-|-1-------|-0-----0-|---------|-0-0-----|-----0---|-1-1-----|-------|
B|-3-3-1-1-|-3---3---|-1-3-1-1-|-3-------|-1-1-3-3-|-1-3-1---|-3-3-3-3-|-1-----|
G|-0-0-----|-----0---|---0-----|-0-------|-----0-0-|---0-----|-----0-0-|-------|
D|---------|---------|-----2---|---------|---------|-2-------|---------|-2-----|
A|---------|---------|---------|---------|---------|---------|---------|-------|
E|---------|---------|---------|---------|---------|---------|---------|-------|

Repeat
Related for Sonatina tab