Song name
# A B C D E F G H I J K L M N O P Q R S T U V W X Y Z

Joseph Marro The Hum Drum - The Ghost And The Mockingbird chords

Highlighted       Show chord diagrams
Joseph Marro & The Hum Drum - The Ghost and the Mockingbird

http://www.myspace.com/josephmarroandthehumdrum
(The Official Website of the Band)

Tabbed by Kevin Osborne

(Verse1)
E        B       A           B                   E
Hard to believe, that you're still in love with me.
         B    A	      B                       E
Hard to see, I'll be fine as long as you'll be.
         B      A          B                     E
And I'll leave, I'll leave my heart in your hands.
            B        A           B               A
Hard to believe, oh it's hard to believe it's true.


(Chorus)
A         E              B                      A
There's a mockingbird outside my window at night.
        E                  B                   A
Saying that we should get out and live our life.
           F#        B
So if you love me, I will go anywhere with you.
                                E
I'll do, anything you want me to.


(Verse2)
E       B  A             B                E
Suddenly, things are becoming clear to me.
            B        A              B              E
What can it be, I don't but it will last hopefully.
         B  A        B                 E
And I'll be, I'll be right by your side.
       B    A       B        A
Suddenly, oh suddenly I'm new.


(Chorus2)
A          E            B                    A
There's a ghost hanging above my bed at night.
        E                 B                     A
Saying that we don't have much time in this life.
            F#       B
So if you love me, I will make you my bride,
                                         E
'cause someday soon, we're all gonna die.


(Solo, same chords as Verse)

Keyboard solo tabbed for guitar.

e--------------------------------------|
B--------------------------------------|
G--------------------------------------|
D-------------9----6-7-6-----6---------|
A--7-7-7-9-11------------9-7---9-7-6---|
E--------------------------------------|

e--------------------------------------|
B--------------------------------------|
G--------------------------------------|
D-------------11--9---6-7-9-6----------|
A--7-7-7-9-11-----------------9-7-6----|
E--------------------------------------|

e--------------------------------------|
B------------9-------------------------|
G----9-9--11----9---9-9-8--------------|
D-------------------------11-9-7-------|
A--7-----------------------------------|
E--------------------------------------|

e--------------------------------------|
B--------------------------------------|
G--------------------------------------|
D--------------9---11-7---9-6----------|
A--7-7--7-9-11----------------9-7------|
E--------------------------------------|

(Chorus2)
A          E            B                    A
There's a ghost hanging above my bed at night.
        E                 B                     A
Saying that we don't have much time in this life.
            F#       B
So if you love me, I will make you my bride,
                                         E
'cause someday soon, we're all gonna die.


(Verse1)
E        B       A           B                   E
Hard to believe, that you're still in love with me.
         B    A	      B                       E
Hard to see, I'll be fine as long as you'll be.
         B      A          B                     E
And I'll leave, I'll leave my heart in your hands.
            B        A           B               E
Hard to believe, oh it's hard to believe it's you.
Tap to rate this tab
# A B C D E F G H I J K L M N O P Q R S T U V W X Y Z