Song name
# A B C D E F G H I J K L M N O P Q R S T U V W X Y Z

Joseph Vincent - Sad Single Awareness Day chords

Highlighted       Show chord diagrams
                                         PisLabRakEnRol
--------------------------------------------------
Song: SAD (Single Awareness Day)
Artist: Joseph Vincent
Tabbed by: michaelangelo_L.
Email: kinzakuya000@yahoo.com


F7           C7                Em7
e|--1---     e|--8---     e|--7---|
B|--1---     B|--8---     B|--8---|
G|--2---     G|--9---     G|--7---|
D|--1---     D|--8---     D|--9---|
A|--3---     A|--10--     A|--7---|
E|--1---     E|--8---     E|--x---|


Dmaj7        Bm7           A7          D7           F#m7
e|--x---     e|--x---     e|--5---     e|--10--     e|--9---|
B|--7---     B|--7---     B|--5---     B|--10--     B|--10--|
G|--6---     G|--7---     G|--6---     G|--11--     G|--9---|
D|--7---     D|--7---     D|--5---     D|--10--     D|--11--|
A|--5---     A|--x---     A|--7---     A|--12--     A|--9---|
E|--x---     E|--7---     E|--5---     E|--10--     E|--x---|





Intro

Guitar 1
e|------------------------------------------------------------|
B|----8/13----8/10---10--8---------8h10--8--------------------|
G|---------------------------8h9--------------5h7--5------5---|
D|-----------------------------------------------------7------|
A|------------------------------------------------------------|
E|------------------------------------------------------------|

Guitar 2
       Cmaj7            Am7            Dm7            G7
e|------------3--------------x--------------5-------------3------|
B|------------5--------------5--------------6-------------3------|
G|------------4--------------5--------------5-------------4------|
D|------------5--------------5--------------7-------------3------|
A|----3----------------------x------5---------------------5------|
E|----x--------------5--------------x--------------3-------------|

(hehe hindi ako sure kung Cmaj7 tawag dyan, basta family of C yan sya, basta! ganyan 
yung tab nya :D )





Verse 1 (gayahin nyo lang ang pagstrum ng guitar 2 sa mga verses)
Cmaj7        Am7
I feel that I should tell ya
Dm7              G7       Cmaj7
A warning to prepare ya
Am7          Dm7        G7         
Cmaj7   Am7      Dm7
About this song, it's when love goes wrong
G7           Cmaj7      Am7   Dm7    G7
But I'll carry on

Cmaj7              Am7
I gotta keep it real
Dm7              G7     Cmaj7
Of how I really feel
Am7         Dm7      G7         Cmaj7        Am7   
  Dm7
About this day, I don't want it to stay

G7       Cmaj7       Am7    Dm7    G7
So please go away

Pre-chorus
F7                 G7
When cupid aimed his arrow at me
F7                 G7
He missed by a hundred thousand feet....oh

Chorus
Cmaj7                    Am7
This ain't a song about love
Dm7                          G7
It is actually the opposite I'm thinkin' of
       Cmaj7                   Am7
I don't care 'bout the cards or the candy hearts
Dm7                            G7
Oh no no no I'll tell you right from the start oh

F7                G7
Reminds of how I don't have a date
  C7        Em7      Am7               F7
The 14th of February gets in the way, cause for me
G7
It's Single Awareness Day



Intro (2nd verse)

Guitar 1
e|------------------------------------------------------------|
B|----8/13----8/10---10--8---------8--10--8-------------------|
G|---------------------------8h9---------------7--5h7--5---5--|
D|-------------------------------------------------------7----|
A|------------------------------------------------------------|
E|------------------------------------------------------------|

Guitar 2

(gayahin lang sa intro :D)



Verse 2
Cmaj7              Am7
With all the red and pink
Dm7                G7    Cm7
It's just so hard to think
Am7             Dm7         G7          Cmaj7
Oh why should I care, about what I should wear
Am7       Dm7
G7              Cmaj7     Am7      Dm7      G7
For nobody who's there

(iba na ang pagstrum ditto na part, kayo na bahala :D)

Cmaj7
I need love,
Am7
I need you
Dm7                  G7
I need someone to hold me too

Cmaj7
I need love
Am7
It's so true
Dm7              G7
I need ya to say I love you

Pre-chorus
F7                 G7
But when cupid aimed his arrow at me
F7                 G7
He missed by a hundred thousand feet..oh

Chorus
Cmaj7                    Am7
This ain't a song about love
Dm7                          G7
It is actually the opposite I'm thinkin' of
       Cmaj7                   Am7
I don't care 'bout the cards or the candy hearts
Dm7                            G7
Oh no no no I'll tell you right from the start oh

F7                 G7
Reminds of how I don't have a date
  C7        Em7      Am7               F7
The 14th of February gets in the way, cause for me
G7                       Cmaj7  Am7  Dm7
It's Single Awareness Day
G7              Cmaj7  Am7  Dm7
Oooohhhhh....
G7
I said

Verse 3
Cmaj7    Am7      Dm7     G7
S.A.D No valentine for me
Cmaj7          Am7      Dm7        G7
And Imma be alright if you could only see
     Cmaj7          Am7      Dm7         G7
That today's just a day and if it's meant to be
                Cmaj7            Dm7        G7 - A7
There's always next year, just wait and see...wait and seeeeee..oh oh ohoooh

Chorus (nagshift ang chords)
Dmaj7                    Bm7
This ain't a song about love
Em7                          A7
It is actually the opposite I'm thinkin' of
       Dmaj7                   Bm7
I don't care 'bout the cards or the candy hearts
Em7                            A7
Oh no no no I'll tell you right from the start oh

G7                 A7
Reminds of how I don't have a date
  D7        F#m7      Bm7               G7
The 14th of February gets in the way, cause for me
A7
It's Single Awareness Day

(gayahin lang ang pagstrum ng guitar 2)

Dmaj7  Bm7  Em7

A7      Dmaj7  Bm7  Em7
oh no no no no
A7      Dmaj7  Bm7  Em7  A7
I said S A D no valentine for me...
Dmaj7  Bm7  Em7      A7
But imma be alright...





-Sorry hindi ko alam ang ibang lead na parts eh.. :D


Tap to rate this tab
# A B C D E F G H I J K L M N O P Q R S T U V W X Y Z