Song name
# A B C D E F G H I J K L M N O P Q R S T U V W X Y Z

Joseph Vincent - If You Stay tab

Tabbed by:Jhustyne
E-mail:Jynelife@yahoo.com

Just listen to the song to get a feel for it.

Intro

e|----4-4-4-4-----3-3-3-3-----4-4-4-4-----6-6-6-6--|
B|----4-4-4-4-----4-4-4-4-----6-6-6-6-----8-8-8-8--|
G|----5-5-5-5-----3-3-3-3-----6-6-6-6-----8-8-8-8--|
D|-------------------------------------------------|
A|--------------3-----------4-----------6----------|
E|--4----------------------------------------------|

  
(Right before verse)
e|------------|
B|------------|
G|------------|
D|------------|
A|--6h8-------|
E|-------8p6--|
 

Verse 

e|----4-4-4-4----3-3-3-3----4-4-4-4----6-6-6-6--|
B|----4-4-4-4----4-4-4-4----6-6-6-6----8-8-8-8--|
G|----5-5-5-5----3-3-3-3----6-6-6-6----8-8-8-8--|2x
D|----------------------------------------------|
A|-------------3----------4----------6----------|
E|--4-------------------------------------------|


Pre-chorus

e|----3-3----4-4----6-6-6-6----3-3----4-4--6~--|
B|----4-4----6-6----8-8-8-8----4-4----6-6--8~--|
G|----3-3----6-6----8-8-8-8----3-3----6-6--8~--|
D|---------------------------------------------|
A|--3------4------6----------3------4------6~--|
E|---------------------------------------------|


Chorus

e|----4-4-4-4-----3-3-3-3-----4-4-4-4-----6-6-6-6--|
B|----4-4-4-4-----4-4-4-4-----6-6-6-6-----8-8-8-8--|
G|----5-5-5-5-----3-3-3-3-----6-6-6-6-----8-8-8-8--|
D|-------------------------------------------------|
A|--------------3-----------4-----------6----------|
E|--4----------------------------------------------|

e|----4-4-4-4----3-3-3-3----4-4-4-4--6~--|
B|----4-4-4-4----4-4-4-4----6-6-6-6--8~--|
G|----5-5-5-5----3-3-3-3----6-6-6-6--8~--|
D|---------------------------------------|
A|-------------3----------4----------6~--|
E|--4------------------------------------|


Pre-verse(play verse)


Verse 

e|----4-4-4-4----3-3-3-3----4-4-4-4----6-6-6-6--|
B|----4-4-4-4----4-4-4-4----6-6-6-6----8-8-8-8--|
G|----5-5-5-5----3-3-3-3----6-6-6-6----8-8-8-8--|2x
D|----------------------------------------------|
A|-------------3----------4----------6----------|
E|--4-------------------------------------------|


Pre-chorus

e|----3-3----4-4----6-6-6-6----3-3----4-4--6~--|
B|----4-4----6-6----8-8-8-8----4-4----6-6--8~--|
G|----3-3----6-6----8-8-8-8----3-3----6-6--8~--|
D|---------------------------------------------|
A|--3------4------6----------3------4------6~--|
E|---------------------------------------------|


Chorus

e|----4-4-4-4-----3-3-3-3-----4-4-4-4-----6-6-6-6--|
B|----4-4-4-4-----4-4-4-4-----6-6-6-6-----8-8-8-8--|
G|----5-5-5-5-----3-3-3-3-----6-6-6-6-----8-8-8-8--|
D|-------------------------------------------------|
A|--------------3-----------4-----------6----------|
E|--4----------------------------------------------|

e|----4-4-4-4----3-3-3-3----4-4-4-4--6~--|
B|----4-4-4-4----4-4-4-4----6-6-6-6--8~--|
G|----5-5-5-5----3-3-3-3----6-6-6-6--8~--|
D|---------------------------------------|
A|-------------3----------4----------6~--|
E|--4------------------------------------|


Bridge

e|--3~--4~--4~--6~---4~--4-------4~------6~--|
B|--4~--6~--4~--8~---3~----3-----6~--6~--8~--|
G|--3~--6~--5~--8~---4~------4x--6~--6~--8~--|
D|-------------------------------------------|
A|--3~--4~--4~--6~---3~----------4~--6~--6~--|
E|-------------------------------------------|


Chorus(Strum)

e|--6---5---6--8---|
B|--6---6---8--10--|
G|--7---5---8--10--|2x
D|--8---7---8--8---|
A|--8---5---6--8---|
E|--6--------------|


Outro(Strum)

e|--6---5---6--8---|
B|--6---6---8--10--|
G|--7---5---8--10--|2x
D|--8---7---8--8---|
A|--8---5---6--8---|
E|--6--------------|
Tap to rate this tab
 
# A B C D E F G H I J K L M N O P Q R S T U V W X Y Z