Song name
# A B C D E F G H I J K L M N O P Q R S T U V W X Y Z

Josephine Collective - Living tab

Help us improve GuitareTab! Take a short survey!
Tuning: Down 1/2 step from Drop D
C# G# C# F# A# D#

Intro GTR I
|-------|-------|-------|-----|-------|----------------------------------|
|-------|-------|-------|-----|-------|----------------------------------|
|-------|-------|-------|-----|-------|----------------------------------|
|---5---|---0---|---9---|--7--|---5---|--0-------------------------------|
|---5---|---0---|---9---|--7--|---5---|--0-------------------------------|
|---5---|---0---|---9---|--7--|---5---|--0-------------------------------|

GTR II Intro
|-------|-------|-------|---------------|-------------------------------|
|-------|-------|-------|---------------|-------------------------------|
|---7---|--7----|---11--|--9--9\-11/-9--|--7-7\--9\--11-----------------|
|---x---|--x----|---x---|--x--x--x---x--|--x-x---x---x------------------|
|---5---|--5----|---9---|--7--7\-9-/-7--|--5-5\--7\--9------------------|
|-------|-------|-------|---------------|-------------------------------|

Both Verse
                                                                 GTR I
|-------|-------------|--------|------------|-----|------------|--------|
|-------|-------------|--------|------------|-----|------------|--------|
|---7---|--7----------|--------|------------|-----|------------|--------|
|---7---|--7----5-7---|---7----|---7---7-9--|--9--|---9----7---|----5---|
|---5---|--5----5-7---|---7----|---7---7-9--|--9--|---9----7---|----5---|
|-------|-------5-7---|---7----|---7---7-9--|--9--|---9----7---|----5---|
                                                                    .
GTR II  x2      verse cont'
         |
         v
|----------------|---------------------------------------------------|
|----------------|---------------------------------------------------|
|---9\-11-x-x----|----9\-11----9----7--------------------------------|
|---x--x--x-x----|----x--x-----x----x--------------------------------|
|---7\-9--x-x----|----7\-9-----7----5--------------------------------|
|----------------|---------------------------------------------------|


PreChorus               GTR I       GTR II
|-----|-------|-----|---------||-----------------------------------------|
|-----|-------|-----|---------||-----------------------------------------|
|-----|-------|-----|---------||----11\-9--------------------------------|
|--5--|--0-0--|--5--|---5\-7--||----x---x--------------------------------|
|--5--|--0-0--|--5--|---5\-7--||----9\--7--------------------------------|
|--5--|--0-0--|--5--|---5\-7--||-----------------------------------------|
   0             0

Chorus 
GTR I
|----|-----|-----|----|----|---|-----|------|---|---|---|-----|-----|----|
|----|-----|-----|----|----|---|-----|------|---|---|---|-----|-----|----|
|----|-----|-----|----|----|---|-----|------|---|---|---|-----|-----|----|
|-5--|--0--|--9--|--7-|--5-|-0-|-9-7-|-10-7-|-5-|-0-|-9-|--7--|--5--|--0-|
|-5--|--0--|--9--|--7-|--5-|-0-|-9-7-|-10-7-|-5-|-0-|-9-|--7--|--5--|--0-|
|-5--|--0--|--9--|--7-|--5-|-0-|-9-7-|-10-7-|-5-|-0-|-9-|--7--|--5--|--0-|

GTR II Chorus

|-----|-----|-----|------------|----------|-----------------------------|
|-----|-----|-----|------------|----------|-----------------------------|
|--7--|--7--|--11-|--9--9\11/9-|---11--9--|----12-----9-----------------|
|--x--|--x--|--x--|--x--x-x-x--|---x---x--|-----x-----x-----------------|
|--5--|--5--|--9--|--7--7\9/7--|---9---7--|----10-----7-----------------|
|-----|-----|-----|------------|----------|-----------------------------|
              1st                 2nd ending
              ending

     

Related for Living tab