Song name
# A B C D E F G H I J K L M N O P Q R S T U V W X Y Z

Josephine Collective - Its Like Rain tab

Josephine Collective
It's Like Rain
We Are The Air


i took this straight from damon's video, if you havent seen it yet, check it out

http://www.youtube.com/watch?v=LxTVdkFUjmg

intro/verse (figure out strums)
D#|-5----2----0----0------| 
A#|-3----3----3----3------|
F#|-2----2----2----0------| 
C#|-4----4----4----4------|
G#|-----------------------|
C#|-----------------------|

“then you’ll see..”
D#|-3~----------------------| 
A#|-5~----------------------|
F#|-5~----------------------| 
C#|-5~----------------------|
G#|-3~----------------------|
C#|-------------------------|


“it’s like rain..”
D#|---------------------0----5----0--------| 
A#|-7---------5---------0----7----0--------|
F#|-7----9----5----7----7----7----6----7---| 
C#|-7----7----5----5----0----7----7----5---|
G#|-5----7----3----5----9----5----0----5---|
C#|------7---------5----9---------0----5---|



bridge
D#|-------------------|-------------------| 
A#|-3p0----5p0--------|-7p0---3p0---------|
F#|-----0--------0----|-----0--------0----| 
C#|-----------0h4-----|----------0h4------|
G#|---------------(x2)|---------------(x2)|
C#|-------------------|-------------------|


D#|-------------------|-------------------| 
A#|-8p0----7p0--------|-10p0---7p0--------|
F#|-----0--------0----|-----0--------0----| 
C#|-----------0h4-----|----------0h4------|
G#|---------------(x2)|---------------(x2)|
C#|-------------------|-------------------|


repeat the chorus etc



throw down some delay and end on
D#|-/12~-----------| 
A#|-/10~-----------|
F#|-/11~-----------| 
C#|----------------|
G#|----------------|
C#|----------------|




Tap to rate this tab
 
# A B C D E F G H I J K L M N O P Q R S T U V W X Y Z