Song name
# A B C D E F G H I J K L M N O P Q R S T U V W X Y Z

Josh Abbott Band - Taste tab

this is just the riff to the whole song.....I'm still working on the solo

(riff/outro)
|-----------------------------------------------------------|
|-----------------------------------------------------------|
|---9--11--13--9--11--14-13--11-----------------------------|   x2
|-----------------------------------------------------------|
|-----------------------------------------------------------|
|-----------------------------------------------------------|




|-----------------------------------------------------------------|
|--12--10--9-10---12--10--9-10------------------------------------|
|---------------------------------11-13131313131413---------------|
|-----------------------------------------------------------------|
|-----------------------------------------------------------------|
|-----------------------------------------------------------------|


|-----------------------------------------------------------------|
|-----------------------------------------------------------------|
|--11-11(5x)-1311---9---------------------------------------------|
|-----------------------------------------------------------------|
|-----------------------------------------------------------------|
|-----------------------------------------------------------------|

on that last measure in the end, hold the 9 out and let it ring. also after you get the 
hang of it, you can start sliding to the frets and it sounds better.
Tap to rate this tab
 
# A B C D E F G H I J K L M N O P Q R S T U V W X Y Z