Song name
# A B C D E F G H I J K L M N O P Q R S T U V W X Y Z

Josh Freese - Why Wont Left Eye Get With Me tab

JOSH FREESE- drummer for vandals,devo,perfect circle,g n r, 1 solo album
WHY WONT LEFT EYE GET WITH ME
THE NOTORIOUS ONE MAN ORGY
KUNG FU RECORDS


----------------------|
----------------------|
----------------------|
----------------------|
---7--9---------------|
---5--7---5555--7777--|
----------3333--5555--|


----------------------|
----------------------|
----------------------|
----------------------|
---7--9---------------|
---5--7---5555--7777--|
----------3333--5555--|

im 100% sure of this tab,so have fun
Tap to rate this tab
# A B C D E F G H I J K L M N O P Q R S T U V W X Y Z