Song name
# A B C D E F G H I J K L M N O P Q R S T U V W X Y Z

Josh Garrels - Bread And Wine tab

-------------------------------------------------------------------------------
                             Bread & Wine - Josh Garrels
-------------------------------------------------------------------------------
Tabbed by: smnstd


Tuning: Standard
Capo: 2nd fret on D - G - B - e strings. Not lower E and A.
Tabs are relative to capo except A and lower E strings. 

Intro
e|----------------------2-------------------0-------------------5----------|
B|------------3----3---------------3----3---------3----3--------3----------|
G|------------2----2---------------2----2---------0-------0---------0------|
D|------------0----0---------------0----0---------0----------------0-------|
A|---------4----------------------0----------------------------------------|
E|-------------------------------------------------0-----------------------|

e|-------------------------------------2--------0--------------------------|
B|------------------------3----3---------3---------------------------3-----|
G|------------------------0-------0--------0-------------------------0-----|
D|------------------------0-------------------------------------------0----|
A|----------6h7\-------------------------------------6h7\------------------|
E|------/7------------5---------------------------/7------------5----------|

e|---------2------2----------|
B|---3-------3-----3---------|
G|------0-----0-----0--------|
D|---------------------------|
A|---------------------------|
E|---------------------------|

Verse
e|-------------------2--------------------0--------------5--------|
B|------------3----3---------------3----3---------3--3-----3------|
G|------------2----2---------------2----2---------0----0-------0--|
D|------------0----0---------------0----0---------0----------0----|
A|---------4---------------------0--------------------------------|
E|----------------------------------------------0-----------------|

e|---------------------------2-----0-------------------|
B|--------------------3--3-----3------------------3----|
G|--------------------0----0-----0----------------0----|
D|--------------------0---------------------------0----|
A|---------6h7\-------------------------6h7\-----------|
E|------/7--------5------------------/7--------5-------|

First time:                         Second time (before chorus)
e|---------2------2----------|  e|---------2------2h3--------|
B|---3-------3-----3---------|  B|---3-------3---------3-----|
G|------0-----0-----0--------|  G|------0-----0----------0---|



Chorus:
      Em  Dsus/F#          G    C    D     C    G
e|----3------3------ 3----3----2-----3----3--2h3----|
B|----3------3-------3----3----3-----3----3--3------|
G|----0------2-------0----0----2-----0----0--0------|
D|----2------0-------0----2----0-----2----0--0------|
A|----4------x-------2----5----------5----2--x------|
E|----0------4-------5--------------------5--5------|
                      (^transition  (^transition
                              chord)                               chord)



Interlude between chorus and verse
e|----------------------2-----2-------|------------|
B|-------------------3---3-----3------|------------|
G|-------------------0----0-----0-----|------------|
D|-------------------0--------------(3x)-----------|
A|---------6h7\-----------------------|-----6h7\---|
E|------/7-------5--------------------|---/7-------|



Remember to listen to the song as this isn't 100 % accurate, as well as using 
strumming. Just listen to the song, really.

************************************

| /   slide up
| \   slide down
| h   hammer-on
| p   pull-off
| ~   vibrato
| +   harmonic
| x   Mute note
| b   Bend
| pb  Pre-bend
| br  Bend release
| pbr Pre-bend release
| brb Bend release bend

************************************
Tap to rate this tab
# A B C D E F G H I J K L M N O P Q R S T U V W X Y Z