Song name
# A B C D E F G H I J K L M N O P Q R S T U V W X Y Z

Josh Garrels - Little Blue tab

Feel free to email with any questions: jonyoyoman@gmail.com

Capo: 4th Fret, only on bottom five strings

All tab relative to Capo other than Low E string. The Bottom line.



Intro:

|------0---3---3-----------3---1---0-----------3---------------0--------------|
|--------1---1---------------0---0--------------------------------------------|
|----------------0---0---0-----------0---0---0---0---0-------0---0---0--------|
|------------------0-------------------0-----------0---------------2-------0--|
|----3-------------------------------------------------3-2-3-------------2----|
|--0-------------------7-------------------7---------------------------7------|


|-----0---3---3---------3---1---0-----------3---------------0--------------|
|-------1---1-------------0---0--------------------------------------------|
|---0-------------0---0-----------0---0---0---0---0-------0---0---0--------|
|---------------2-------------------0-----------0---------------0-------0--|
|-3-------------------------------------------------3-2-3-------------2----|
|-------------------7-------------------5---------------------------7------|


Verse:

|-----0---3---3---------3---1---0-----------3---------------0--------------|
|-------1---1-------------0---0--------------------------------------------|
|---0-------------0---0-----------0---0---0---0---0-------0---0---0--------|
|---------------2-------------------0-----------0---------------0-------0--|
|-3-------------------------------------------------3-2-3-------------2----|
|-------------------7-------------------5---------------------------7------|


|-----0---3---3---------3---1---0-----------3---------------0-------|
|-------1---1-------------0---0-------------------------------------|
|---0-------------0---0-----------0---0---0---0---0-------0---0---0-|
|---------------2-------------------0-----------0---------------0---|
|-3-------------------------------------------------3-2-3-----------|
|-------------------7-------------------5---------------------------|


Pre-Chorus:

|----------0----12----12----------------3-----3p0------------3-----------3-------|
|------------10----10----10------------------------------------------------------|
|--------0------------------0----0----0---0--------0---0---0---0---0---0---0---0-|
|-----------------------------11---------------------2-----------0-----------0---|
|--3\12----------------------------3--------3------------------------------------|
|--------------------------------------------------------7-----------5-----------|


|------0---------------0----12----12-------------3-----3p0------------3-----------3--------|
|------------------------10----10----------------------------------------------------------|
|----0---0---0-------0---------------0----0----0---0--------0---0---0---0---0-------0---0--|
|----------2---------------------------11---------------------2-----------0-----0-----0----|
|--3-----------3/12------------------------3--------3--------------------------------------|
|-----------------------------------------------------------------7-----------5------------|


|------0-------------|
|--------------------|
|----0---0---0-------|
|----------2-------0-|
|--3-------------2---|
|--------------7-----|


Chorus:

|------0---3---3-----------3---1---0-----------3---------------0-------------|
|--------1---1---------------0---0-------------------------------------------|
|----0-----------0---0---0-----------0---0---0---0---0-------0---0---0-------|
|------------------2-------------------0-----------0---------------2-------0-|
|--3---------------------------------------------------3-2-3-------------2---|
|----------------------7-------------------5---------------------------7-----|


|------0---3---3-----------3---1---0-----------3---------------0-------------|
|--------1---1---------------0---0-------------------------------------------|
|----0-----------0---0---0-----------0---0---0---0---0-------0---0---0-------|
|------------------2-------------------0-----------0---------------2-------0-|
|--3---------------------------------------------------3-2-3-------------2---|
|----------------------7-------------------5---------------------------7-----|


Verse 2:

|------0---3---3-----------3---1---0-----------3---------------0-------------|
|--------1---1---------------0---0-------------------------------------------|
|----0-----------0---0---0-----------0---0---0---0---0-------0---0---0-------|
|------------------2-------------------0-----------0---------------2-------0-|
|--3---------------------------------------------------3-2-3-------------2---|
|----------------------7-------------------5---------------------------7-----|


|------0---3---3-----------3---1---0-----------3---------------0-------|
|--------1---1---------------0---0-------------------------------------|
|----0-----------0---0---0-----------0---0---0---0---0-------0---0---0-|
|------------------2-------------------0-----------0---------------2---|
|--3---------------------------------------------------3-2-3-----------|
|----------------------7-------------------5---------------------------|


Pre-Chorus:

|----------0----12----12----------------3-----3p0------------3-----------3-------|
|------------10----10----10------------------------------------------------------|
|--------0------------------0----0----0---0--------0---0---0---0---0---0---0---0-|
|-----------------------------11---------------------2-----------0-----------0---|
|--3\12----------------------------3--------3------------------------------------|
|--------------------------------------------------------7-----------5-----------|


|------0---------------0----12----12-------------3-----3p0------------3-----------3--------|
|------------------------10----10----------------------------------------------------------|
|----0---0---0-------0---------------0----0----0---0--------0---0---0---0---0-------0---0--|
|----------2---------------------------11---------------------2-----------0-----0-----0----|
|--3-----------3/12------------------------3--------3--------------------------------------|
|-----------------------------------------------------------------7-----------5------------|


|------0-------------|
|--------------------|
|----0---0---0-------|
|----------2-------0-|
|--3-------------2---|
|--------------7-----|


Chorus:

|------0---3---3-----------3---1---0-----------3---------------0-------------|
|--------1---1---------------0---0-------------------------------------------|
|----0-----------0---0---0-----------0---0---0---0---0-------0---0---0-------|
|------------------2-------------------0-----------0---------------2-------0-|
|--3---------------------------------------------------3-2-3-------------2---|
|----------------------7-------------------5---------------------------7-----|


|-------0---3---3-----------3---1---0-----------3---------------0--------------|
|---------1---1---------------0---0--------------------------------------------|
|-----0-----------0---0---0-----------0---0---0---0---0-------0---0---0--------|
|-------------------2-------------------0-----------0---------------2-------0--|
|---3---------------------------------------------------3-2-3-------------2--3-|
|-----------------------7-------------------5---------------------------7------|


Verse:
Who is like my child
Who's so lovely and wild
Oh my little bird
By the river I have heard

Pre-Chorus:
My lover calls in fall and spring
She says keep your eyes on Heron's wings
She's comin' soon, lets dance and sing
For the joy a new life brings (Second time: For the joy that her life brings)

Chorus:
Dun dun dun

Verse 2:
Strong and graceful too
Is your mother in red and blue
Love I never knew filled my heart
When I held you
Tap to rate this tab
 
# A B C D E F G H I J K L M N O P Q R S T U V W X Y Z