Song name
# A B C D E F G H I J K L M N O P Q R S T U V W X Y Z

Josh Gracin - Nothin To Lose tab

intro

   w/wah
D|------------------------------------------------------14-14----|
A|--------------------------xxxxxxxx--------------------14-14----|
F|-11xx11xxxxx11xxx11xx9xx11xxxxxxxx999911xx11xxxxx11xx------xx--|
C|---------------------------------------------------------------|
G|---------------------------------------------------------------|
D|---------------------------------------------------------------|

D|----------x----------------------------------------------------|
A|----------x--------------------------14-14---------------------|
F|-x9x11xxx---x99999999xx11xxx99x9x11xx14-14x9xxxxx9999999-11xx--|
C|---------------------------------------------------------------|
G|---------------------------------------------------------------|
D|---------------------------------------------------------------|

D|----------------------14---14-14-14---14-14-14---14-14-14-----|
A|-----------------x-14-14-x-14-14-14-x-14-14-14-x-14-14-14-x-x-|
F|-11xx11xx11xxx9x10-11----x----------x----------x----------x-x-|
C|--------------------------------------------------------------|
G|--------------------------------------------------------------|
D|--------------------------------------------------------------|
Tap to rate this tab
# A B C D E F G H I J K L M N O P Q R S T U V W X Y Z