Guitaretab - guitar tabs
Song name
# A B C D E F G H I J K L M N O P Q R S T U V W X Y Z

Josh Groban - You Raise Me Up tab

You Raised me up Tab
Organized by Zane Xu
Thanks to TheyCallMeLinn for the Chord Timings
and slashdotdash_89 for the Solo

If using two guitars, 2nd guitar plays with the capo one 
fret lower and play softer than the 1st guitar.

Musical terms: 
Piano = Soft
Pianisimmo = Softer than Piano (the term, not instrument)
Forte = Full/loud(don't wanna use this word...) 
Fortesimmo = Fuller/louder than Forte


Intro
e|-------------------1/3-----------------------------------------------------|
B|-----------4----------------4-------4h6-----4----4----------------4--------|
G|--3----3------------------------------------------------5---3--------------|
D|---------------------------------------------------------------------------|
A|---------------------------------------------------------------------------|
E|---------------------------------------------------------------------------|

e|-----------------3-----3/6--------------4/8----6-----3-----4h3-------1-----|
B|---3----4--------------------------4---------------------------------------|
G|---------------------------------------------------------------------------|
D|---------------------------------------------------------------------------|
A|---------------------------------------------------------------------------|
E|---------------------------------------------------------------------------|

e|--6--6---10---10h11-------------10--8--------------------------------------|
B|-------------------------9--------------11----9-----9h11-------------------|
G|---------------------------------------------------------------------------|
D|---------------------------------------------------------------------------|
A|---------------------------------------------------------------------------|
E|---------------------------------------------------------------------------|

e|-------------1-----1/3-----------6----3------------------------------------|
B|---4---4------------------------------------6-----4------6------4----------|
G|---------------------------------------------------------------------------|
D|---------------------------------------------------------------------------|
A|---------------------------------------------------------------------------|
E|---------------------------------------------------------------------------|

(Play Softly - Piano)
[Capo on First]
          D	     G               D
When I am down and, oh my soul, so weary;             
               D      G	          A             A
When troubles come and my heart burdened be;     
	     Bm        G                 D       G
Then, I am still and wait here in the silence,   
            D      A              D
Until you come and sit awhile with me.              

 
Chorus:
             Bm     G                 D            A
You raise me up, so I can stand on mountains;                           
              Bm     G              D         A    
You raise me up, to walk on stormy seas;           
         Bm       G                  D     G
I am strong, when I am on your shoulders;
             D       A               D
You raise me up to more than I can be.              

[ Tab from: http://www.guitaretab.com/j/josh-groban/49796.html ]
Solo
e|-----------------3/5-------------------------------------------------------|
B|---------6----------------6-------6h8-----6----6----------------6----------|
G|----5-------------------------------------------------7---5----------------|
D|---------------------------------------------------------------------------|
A|---------------------------------------------------------------------------|
E|---------------------------------------------------------------------------|

e|-----------------5-----5/8--------------6/10---8-----5-----6h5-------3-----|
B|---5----6--------------------------6---------------------------------------|
G|---------------------------------------------------------------------------|
D|---------------------------------------------------------------------------|
A|---------------------------------------------------------------------------|
E|---------------------------------------------------------------------------|

e|--8--8---12---12h13-------------12-10--------------------------------------|
B|------------------------11--------------13---11----11h13---10--------------|
G|---------------------------------------------------------------------------|
D|---------------------------------------------------------------------------|
A|---------------------------------------------------------------------------|
E|---------------------------------------------------------------------------|

e|-------------3-----3/5-----------8----5------------------------------------|
B|---6---6------------------------------------8-----6------8------6----------|
G|---------------------------------------------------------------------------|
D|---------------------------------------------------------------------------|
A|---------------------------------------------------------------------------|
E|---------------------------------------------------------------------------|



Slight Crescendo to Forte
Repeat [Capo on 3rd]
             Bm     G                 D            A
You raise me up, so I can stand on mountains                           
              Bm     G              D         A   
You raise me up, to walk on stormy seas           
         Bm       G                  D     G
I am strong, when I am on your shoulders
             D       A               D
You raise me up to more than I can be.  
    
Fortesimmo 
Repeat (x2) [Capo on 4rd]
             Bm     G                 D            A
You raise me up, so I can stand on mountains                           
              Bm     G              D         A   
You raise me up, to walk on stormy seas           
         Bm       G                  D     G
I am strong, when I am on your shoulders        
             D       A               D
You raise me up to more than I can be.  

Decrescendo to piano then pianisomo 

you raise me up           to more than  I can be
e|-----------2----------------0----------------2--------2--------------------|      
B|---------3---3------------2---2------------3---3------3--------------------|
G|-------2-------2--------2-------2--------2-------2----2--------------------| 
D|-----0-----------0----2-----------2----0-----------0--0--------------------|
A|---------------------------------------------------------------------------|
E|---------------------------------------------------------------------------|
                           Slight  Retardando..... 


Listen to original Record for exact timing on this part. 
Related for You Raise Me Up tab
You Raise Me Up chords by Josh Groban