Guitaretab - guitar tabs
Song name
# A B C D E F G H I J K L M N O P Q R S T U V W X Y Z

Josh Groban - Mi Morena tab

Mi Morena
Intro-(throughout chorus as well)
  1 . 2 . 3 . 4 . |1 . 2 . 3 . 4 . |1 . 2 . 3 . 4 . |1 . 2 . 3 . 4 . |
e|----------------|----------------|----------------|----------------|
B|----------------|----------------|----------------|----44-44-------|
G|-1---34---1-----|-1-4-3-33-3-4-|-1---34---1-----|-1--------3-4---|
D|----------------|----------------|----------------|----------------|
A|----------------|----------------|----------------|----------------|
E|----------------|----------------|----------------|----------------|

  1 . 2 . 3 . 4 . |1 . 2 . 3 . 4 . |1 . 2 . 3 . 4 . |1 . 2 . 3 . 4 . |
e|----------------|----------------|----------------|----------------|
B|-4---22---4-----|----------------|----------------|----------------|
G|------------4---|-1--34--3-33-1-1|----------------|----------------|
D|----------------|----------------|----------------|----------------|
A|----------------|----------------|----------------|----------------|
E|----------------|----------------|----------------|----------------|
[ Tab from: http://www.guitaretab.com/j/josh-groban/55509.html ]
Bridge-
  1 . 2 . 3 . 4 . |1 . 2 . 3 . 4 . |1 . 2 . 3 . 4 . |1 . 2 . 3 . 4 . |
e|----------------|----------------|----------------|---1111-1111----|
B|-9--1112--9----|91211-1111-1112|-9--1112--9----|-9----------1112|
G|---------------|---------------|----------------|----------------|
D|----------------|----------------|----------------|----------------|
A|----------------|----------------|----------------|----------------|
E|----------------|----------------|----------------|----------------|

  1 . 2 . 3 . 4 . |1 . 2 . 3 . 4 . |1 . 2 . 3 . 4 . |1 . 2 . 3 . 4 . |
e|-11--99--11-----|----------------|----------------|----------------|
B|------------12--|----------------|----------------|----------------|
G|----------------|91112-11-1111-99|----------------|----------------|
D|----------------|----------------|----------------|----------------|
A|----------------|----------------|----------------|----------------|
E|----------------|----------------|----------------|----------------|

Ending-(repeat)
  1 . 2 . 3 . 4 . |1 . 2 . 3 . 4 . |1 . 2 . 3 . 4 . |1 . 2 . 3 . 4 . |
e|----------------|----------------|----------------|----------------|
B|----------------|----------------|----------------|----44-44-------|
G|-1---34---1-----|-1-4-3-33-3-4-|-1---34---1-----|-1--------3-4---|
D|----------------|----------------|----------------|----------------|
A|----------------|----------------|----------------|----------------|
E|----------------|----------------|----------------|----------------|

  1 . 2 . 3 . 4 . |1 . 2 . 3 . 4 . |1 . 2 . 3 . 4 . |1 . 2 . 3 . 4 . |
e|----------------|----------------|----------------|----------------|
B|-4---22---4-----|----------------|----------------|----------------|
G|------------4---|-1--34--3-33-1-1|----------------|----------------|
D|----------------|----------------|----------------|----------------|
A|----------------|----------------|----------------|----------------|
E|----------------|----------------|----------------|----------------|
Related for Mi Morena tab