Song name
# A B C D E F G H I J K L M N O P Q R S T U V W X Y Z

Josh Groban - Mi Mancherai tab

Email:slashdotdash_89@hotmail.com

Tuning:normal

I have always loved the violin solo part of the song, so I decided to make a guitar version 

of it.  This is my first tab, and if anyone can improve it, please let me know (as I never 

had proper guitar lessons). 

e|------------------2---0---x-------------------7---9-10~--9/10-9-5----------|
B|------------------0---2---3---------------------7-----------------7-3------|
G|------------------0---2---0----4~-6/7-6-4-6-7-------------------------4----|
D|---------------9~-0---2---2-------------------------------------------0----|
A|2~-4/5-4-2-4-5----x---x---2------------------------------------------------|
E|------------------3---x---0------------------------------------------------|

e|-0---2---2-5~-2-5~----2-7-2-5~--5/7-5~-3/2-3-5753-2-3-10~-3-2--------------|
B|-2---2----------3-----------2-------------------------------3--------------|
G|-0---0----------2-----------2-------------------------------2--------------|
D|-2---2----------------------2-------------------------------0--------------|
A|-0---0------------------------------------------------------0--------------|
E|-x---x------------------------------------------------------x--------------|

e|-2-3-2--------5~---0-------2-5--10~---12-14-15-14-12101415-17-19~----------|
B|---0---5~-4/5----2---3-2-3-0-3---------------------------------------------|
G|-------0-----------0-4-----------------------------------------------------|
D|-----------------------2-4-------------------------------------------------|
A|---------------------------------------------------------------------------|
E|---------------------------------------------------------------------------|

e|-----0-3-7-9---------------------------------------------------------------|
B|-0-0---0-5-8---------------------------------------------------------------|
G|-----0-----0---------------------------------------------------------------|
D|-0-0-------8---------------------------------------------------------------|
A|---------------------------------------------------------------------------|
E|---------------------------------------------------------------------------|
Tap to rate this tab
# A B C D E F G H I J K L M N O P Q R S T U V W X Y Z