Song name
# A B C D E F G H I J K L M N O P Q R S T U V W X Y Z

Josh Homme - Nobody To Love tab

Nobody To Love - Josh Homme & David Sardy                     

Tune down 2 step:
C,G,D#,A#,F,C



Intro:
                          
C ||--------------------------|--------------------------|
G ||--------------------------|--------------------------|
D#||--------------------------|--------------------------|
A#||-----2--------2--------2--|--------2-----------------|
F ||-----2--------2--------2--|--------2-----------------|
C ||--0--------0--------0-----|-----0--------3--3--5--5--|
               
---------------------------|--------------------------|
---------------------------|--------------------------|
---------------------------|--------------------------|
------2--------2--------2--|--------2-----------------|
------2--------2--------2--|--------2-----------------|
--0-0-------0--------0-----|-----0--------3--3--5--5--|


  
Chorus:

Riff 1                                                       
------------------------------|--------------------------|
------------------------------|--------------------------|
--5------5-----5--5-----5--2--|-----2--2-----9--9-----9--|
--5------5-----5--5-----5--2--|-----2--2-----9--9-----9--|
--3------3-----3--3-----3--0--|-----0--0-----7--7-----7--|
------------------------------|--------------------------|
                                                                         
--------------------------|
--------------------------|
--9-----8--8-----8--8-----|
--9-----8--8-----8--8-----|
--7-----6--6-----6--6-----|
--------------------------|
   
Riff 2                             
------------------------------|--------------------------|
------------------------------|--------------------------|
--5------5-----5--5-----5--2--|-----2--2-----------------|
--5------5-----5--5-----5--2--|-----2--2-----------------|
--3------3-----3--3-----3--0--|-----0--0-----------------|
------------------------------|--------------------------|



Interlude:  

--------------------------|--------------------------|
--------------------------|--------------------------|
--------------------------|--------------9--9-----9--|
--2--2-----2--2-----5--5--|-----5--5-----9--9-----9--|
--2--2-----2--2-----5--5--|-----5--5-----7--7-----7--|
--0--0-----0--0-----3--3--|-----3--3-----------------|      

--------------------------|
--------------------------|
--9-----8--8-----8--8-----|
--9-----8--8-----8--8-----|
--7-----6--6-----6--6-----|
--------------------------|



Outro:

--------------------------|--------------------------|
--------------------------|--------------------------|
--------------------------|--------------------------|
-----2--------2--------2--|--------2-----------------|
-----2--------2--------2--|--------2-----------------|
--0--------0--------0-----|-----0--------3--3--5--5--|
   
--------------------------||
--------------------------||
--------------------------||
-----2--------2--------2--||
-----2--------2--------2--||
--0--------0--------0-----||


It's tabbed by ear, hope you guys enjoy!
Feel free to correct - contact: M.Meeuwissen@yahoo.nl
Tap to rate this tab
# A B C D E F G H I J K L M N O P Q R S T U V W X Y Z