Song name
# A B C D E F G H I J K L M N O P Q R S T U V W X Y Z

Josh Kelley - Home To Me tab

Help us improve GuitareTab! Take a short survey!
Josh Kelley - Home To Me

Tabbed by Ryan Morrissey
Email: morsels2319@netscape.net

(intro/outro taken from MC - mcdaddy0945@aol.com)

Standard Tuning - Capo 2nd Fret

INTRO	   D		   Am		    G		       Dsus4

e|--------0h2--------------------------------------------------3p2---------|
B|------------3---0--------0h1------------------3-----------------3---3----|
G|----2----------2---------------2----0-------------0----0---2-------------|
D|--0--------------------2---------2-------------------0---0---------------|
A|-------------------0----------------------2-----------------------0------|
E|----------------------------------------3--------------------------------|
         
            Isn't it funny...


CHORUS	
	      	    Am	     G		D	(pick chords like INTRO)
			
  	Cause' its you...
        
	    Am	    G       D

	Its you that...

		Am	G	Bm	Asus4

	And its like a pain...

		G	Em

	And it always...

BRIDGE
	       Bm	Asus4	G	       

	e|-----2---------0------3-------------|
	B|-----3---------3------3-------------|
	G|-----4---------2------0-------------|
	D|-----4---------2------0-------------|
	A|-----2---------0------2-------------|
	E|----------------------3-3-2-3-2-3-2-|

	Cause you are home...


OUTRO    D	       Am	    G		     Dsus4

e|------0h2------------------------------------------3p2----2---2----------|
B|----------3--0-------0h1-------------3-----------------3----3---3--------|
G|---2--------2-------------2--0----------0----0---2-------2----2---2------|
D|-0----------------2---------2--------------0---0-------------------------|
A|----------------0-----------------2--------------------------------------|
E|--------------------------------3----------------------------------------|


CHORDS USED:

Am:    x02210
G:     320033
D:     xx0232
Dsus4: xx0233
Bm:    x24432
Asus4: x02230
Em:    022000
Related for Home To Me tab