Song name
# A B C D E F G H I J K L M N O P Q R S T U V W X Y Z

Josh Kelley - Almost Honest tab

I say Josh play this live on TV and had to learn it.
I'm a bit of a hack so this is probably not 100% correct but its close.
Any corrections please let me know.
I'm also lazy so I didn't tab out every strum.  Listen to the song and you can pick that up.

ratrob@hotmail.com

Capo 3rd fret-all chords are in relation to capo

Main riff

"So in the meantime"


      Am7	      C/B	        C	  C/G

-----------------------------------------------------------|
-------------1-----------1------------1--------------------|
---------0-----------0------------0--------------0---------|
-----2------------0------------2--------------2------------|
--0------------2------------3--------------3---------------|
----------------------------------------3------------------|

 F             	             (Strum)  (dn)   (up)

-------------------------------1-------------1--------0----|
---------------1---------------1-------------1--------0----|
-----------2-------2-----------2-------2-----2-------------|
-------3---------------3-------3-------3-----3-------------|
---3---------------------------3-------3-------------------|
1------------------------------1-------1-------------------|


Interlude

"She was easy"

 Dm     (up)   (dn)			     G5

--0h1----1-----1--------1p0-------3p0---------3-|
--0h3----2-----2------------2---------2-------3-|
--0h2----3-----3--------------3---------3-----0-|
---------0-----0------------------------------0-|
----------------------------------------------0-|
----------------------------------------------3-|

"My reflection"

Fm7

----0------0------0------0------0------0-----|
----1------1------1------1------1------1-----|
--0h2------2------2-----0h2-----2------2-----|
----3------3------3------3------3------3-----|
----3------3------3------3------3------3-----|
---------------------------------------------|

"In the window when I ride"

C

----0------0------0-----0------0------0-----|
----1------1------1-----1------1------1-----|
----0------0------0-----0------0------0-----|
---0h2-----2------2----0h2-----2------2-----|
----3------3------3-----3------3------3-----|
--------------------------------------------|

When going through the second time, he follows the Fm7 with a G5 played open

Fm7

----0------0------0------0------0------0-------3-|
----1------1------1------1------1------1-------3-|
-- 0h2-----2------2---- 0h2-----2------2-------0-|
----3------3------3------3------3------3-------0-|
----3------3------3------3------3------3-------0-|
-----------------------------------------------3-|


Chorus

"Cause I was almost honest"

		                  C (up)

------------------------------------0------------3-------3-------|
------------------------------------1------------1-------1-------|
------------------------------------0------------2-------2-------|
--2---------0------------2----------2------------3-------3-------|
--0---------2------------3----------3----------------------------|
-----------------------------------------------------------------|
Tap to rate this tab
# A B C D E F G H I J K L M N O P Q R S T U V W X Y Z