Song name
# A B C D E F G H I J K L M N O P Q R S T U V W X Y Z

Josh Kelley - Cain And Able tab

I was looking for this tab and no one seems to have done it yet. It's not good by any 
but it's the main bits he's doing. There are definitely some ghost notes that should get 
in but hopefully someone more talented than me will do that for us. :)


Josh Kelley
"Cain and Able"

TUNING: eBGDGD

INTRO/CHORUS:

E||----------------|--------------|----------------|--------------|
B||----------------|--0h3p0-------|----------------|--0h3p0-------|
G||--------2--2----|---------2----|--------2--2----|---------2----|
D||-----4----------|--------------|-----4----------|--------------|
G||----------------|--------------|----------------|--------------|
D||--0-------------|--------------|--0-------------|--------------|

E||----------------|--------------|------------------|--------------|
B||----------------|--0h3p0-------|------------------|--------------|
G||--------2--2----|---------2----|--------0--0h2----|--------------|
D||-----4----------|--------------|-----4------------|--4-----------|
G||--0-------------|--------------|------------------|--------------|
D||----------------|--------------|--0---------------|--------0-----|

VERSE:

E||----------------|----------------|----------------|----------------|
B||----------------|----------------|----------------|----------------|
G||--------2-------|--------2-------|--------2-------|--------2-------|
D||-----4-----4----|-----4-----4----|-----4-----4----|-----4-----4----|
G||----------------|----------------|----------------|----------------|
D||--0-------------|--0-------------|--0-------------|--0-------------|

E||----------------|----------------|------------------|----------------|
B||----------------|----------------|------------------|----------------|
G||--------2-------|--------2-------|--------0--0h2----|----------------|
D||-----4-----2----|-----4-----2----|-----4------------|--4-------------|
G||--0-------------|--0-------------|------------------|----------------|
D||----------------|----------------|--0---------------|--------0-------|
Tap to rate this tab
# A B C D E F G H I J K L M N O P Q R S T U V W X Y Z