Song name
# A B C D E F G H I J K L M N O P Q R S T U V W X Y Z

Josh Pyke - Lighthouse Song tab

----------------------------------------------------------------------------
			     The Lighthouse Song - Josh Pyke
----------------------------------------------------------------------------
Tabbed by: Breno
Email: brennansmart@hotmail.com

Tuning: Standard

PLEASE RATE!!!

Heya
only my second tab, so i hope it sounds alright
and im SO sorry i hvnt tabbed the bridge yet, but when i do ill edit it in


Intro and verse:
e|--------------------------------------------------------------------|
B|----1---1---1---1---1---1---1---1--------1-------1-------1-------1--|
G|------------------0------------------2-------2-------2-------2------|
D|------0---2---3-------3---2---0-------------------------------------|
A|--3--------------------------------3---3---3---3---3---3---3---3----|
E|--------------------------------------------------------------------|


Chorus:
        F                     Am              G(Bar)         F
e|-----------------------------------------------------------------------|
B|--------1-------1---------1-------1--------3-------3---------1-------1-|
G|----2-------2---------2-------2--------4-------4---------2-------2-----|
D|-----------------------------------------------------------------------|
A|--------------------0---0---0---0--------------------------------------|
E|--1---1---1---1----------------------3---3---3---3-----1---1---1---1---|

        F                     Am              G(Bar)         F
e|-----------------------------------------------------------------------|
B|--------1-------1---------1-------1--------3-------3---------1-------1-|
G|----2-------2---------2-------2--------4-------4---------2-------2-----|
D|-----------------------------------------------------------------------|
A|--------------------0---0---0---0--------------------------------------|
E|--1---1---1---1----------------------3---3---3---3-----1---1---1---1---|

        F                     Am              G(Bar)       
e|-----------------------------------------------------|
B|--------1-------1---------1-------1--------3-------3-|
G|----2-------2---------2-------2--------4-------4-----|
D|-----------------------------------------------------|
A|--------------------0---0---0---0--------------------|
E|--1---1---1---1----------------------3---3---3---3---|
   
    "....wind....."
e|---------------------------------------|
B|--------6-------6--------6-------6-----|
G|----7-------7--------7-------7---------|
D|---------------------------------------|
A|--5---5---5---5----5---5---5---5-------|
E|---------------------------------------|
     "ill just hold you tight..."                   \/ Repeat 4 times\/ 
e|--------------------------------------------------|-------------------|
B|----1---1---1---1---1---1---1---1---1---1---1---1-|-------1-----------|
G|------------------0-------------------------------|---0-------0-----0-|
D|------0---2---3-------3---2---0---2---3---2---0---|-------------0h2---|
A|--3-----------------------------------------------|-3---3---3---------|
E|--------------------------------------------------|-------------------|


Verse 2:
e|--------------------------------------------------------------------|
B|----1---1---1---1---1---1---1---1--------1-------1-------1-------1--|
G|------------------0------------------2-------2-------2-------2------|
D|------0---2---3-------3---2---0-------------------------------------|
A|--3--------------------------------3---3---3---3---3---3---3---3----|
E|--------------------------------------------------------------------|

Chorus 2:
        F                     Am              G(Bar)         F
e|-----------------------------------------------------------------------|
B|--------1-------1---------1-------1--------3-------3---------1-------1-|
G|----2-------2---------2-------2--------4-------4---------2-------2-----|
D|-----------------------------------------------------------------------|
A|--------------------0---0---0---0--------------------------------------|
E|--1---1---1---1----------------------3---3---3---3-----1---1---1---1---|

        F                     Am              G(Bar)         F
e|-----------------------------------------------------------------------|
B|--------1-------1---------1-------1--------3-------3---------1-------1-|
G|----2-------2---------2-------2--------4-------4---------2-------2-----|
D|-----------------------------------------------------------------------|
A|--------------------0---0---0---0--------------------------------------|
E|--1---1---1---1----------------------3---3---3---3-----1---1---1---1---|

        F                     Am              G(Bar)       
e|-----------------------------------------------------|
B|--------1-------1---------1-------1--------3-------3-|
G|----2-------2---------2-------2--------4-------4-----|
D|-----------------------------------------------------|
A|--------------------0---0---0---0--------------------|
E|--1---1---1---1----------------------3---3---3---3---|
   
    "....wind....."
e|---------------------------------------|
B|--------6-------6--------6-------6-----|
G|----7-------7--------7-------7---------|
D|---------------------------------------|
A|--5---5---5---5----5---5---5---5-------|
E|---------------------------------------|
     "ill just hold you tight..."                    
e|--------------------------------------------------|
B|----1---1---1---1---1---1---1---1---1---1---1---1-|
G|------------------0-------------------------------|
D|------0---2---3-------3---2---0---2---3---2---0---|
A|--3-----------------------------------------------|
E|--------------------------------------------------|

e|-----------------------------------------|
B|---------1------------------1------------|
G|-----0-------0-----0----0-------0---0----|
D|---------------0h2-----------------------|
A|---3---3---3----------3---3---3---2------|
E|-----------------------------------------|

Bridge:  ???

Chorus 3:
        F                     Am              G(Bar)         F
e|-----------------------------------------------------------------------|
B|--------1-------1---------1-------1--------3-------3---------1-------1-|
G|----2-------2---------2-------2--------4-------4---------2-------2-----|
D|-----------------------------------------------------------------------|
A|--------------------0---0---0---0--------------------------------------|
E|--1---1---1---1----------------------3---3---3---3-----1---1---1---1---|

        F                     Am              G(Bar)         F
e|-----------------------------------------------------------------------|
B|--------1-------1---------1-------1--------3-------3---------1-------1-|
G|----2-------2---------2-------2--------4-------4---------2-------2-----|
D|-----------------------------------------------------------------------|
A|--------------------0---0---0---0--------------------------------------|
E|--1---1---1---1----------------------3---3---3---3-----1---1---1---1---|

        F                     Am              G(Bar)         F
e|-----------------------------------------------------------------------|
B|--------1-------1---------1-------1--------3-------3---------1-------1-|
G|----2-------2---------2-------2--------4-------4---------2-------2-----|
D|-----------------------------------------------------------------------|
A|--------------------0---0---0---0--------------------------------------|
E|--1---1---1---1----------------------3---3---3---3-----1---1---1---1---|

        F                     Am              G(Bar)         F
e|-----------------------------------------------------------------------|
B|--------1-------1---------1-------1--------3-------3---------1-------1-|
G|----2-------2---------2-------2--------4-------4---------2-------2-----|
D|-----------------------------------------------------------------------|
A|--------------------0---0---0---0--------------------------------------|
E|--1---1---1---1----------------------3---3---3---3-----1---1---1---1---|

        F                     Am              G(Bar)       
e|-----------------------------------------------------|
B|--------1-------1---------1-------1--------3-------3-|
G|----2-------2---------2-------2--------4-------4-----|
D|-----------------------------------------------------|
A|--------------------0---0---0---0--------------------|
E|--1---1---1---1----------------------3---3---3---3---|

    "....wind....."
e|---------------------------------------|
B|--------6-------6--------6-------6-----|
G|----7-------7--------7-------7---------|    x2
D|---------------------------------------|
A|--5---5---5---5----5---5---5---5-------|
E|---------------------------------------|

     "ill just hold you tight..."                    
e|-------------------------------------------------------|
B|----1---1---1---1---1---1---1---1---1---1---1---1---1--|
G|------------------0---------------------------------0--|
D|------0---2---3------3---2---0---2---3---2---0------2--|
A|--3-------------------------------------------------3--|
E|-------------------------------------------------------|

end  :)
Tap to rate this tab
# A B C D E F G H I J K L M N O P Q R S T U V W X Y Z