Song name
# A B C D E F G H I J K L M N O P Q R S T U V W X Y Z

Josh Pyke - Sew My Name tab

The intro is about as accurate as you can get, took a while to figure out but glad i did!
Not too sure about the chorus rhythm but it's good enough.
Just normal tuning and hope you enjoy :D

Intro:

||-------7-----5---------------------|
||-----------------7-----7---5-7-5-7-|
||---7-6---7-6---7---7-6---7---------|
||-----------------------------------|
||-----------------------------------|
||-----------------------------------|

Chorus:
||-------5-----5--------5-----5--------5-----5--------5---5-7-5---|
||---5-5---5-5----5-7-7---7-7----7-8-8---8-8----7-8-8---8---------|
||----------------------------------------------------------------|
||----------------------------------------------------------------|
||----------------------------------------------------------------|
||----------------------------------------------------------------|
Tap to rate this tab
 
# A B C D E F G H I J K L M N O P Q R S T U V W X Y Z