Song name
# A B C D E F G H I J K L M N O P Q R S T U V W X Y Z

Josh Ritter - Edge Of The World tab

Josh Ritter - Edge of the world
================================
  tabbed by bfg4

Capo on the 3rd fret.

Tuning: Standard

Intro/Verse
   A                               D              E
e|-----0----------------0-------------------------------------------|
B|-------2----------0h2---2----0-------0---------------0-2-----0----|
G|-------------2-------------------------2-----2--------------------|
D|---2-------2---------------2-------4-------4-------2-------2------|
A|-0-------0--------0------0-------5-------5------------------------|
E|-------------------------------------------------0-------0--------|

Chorus
    F#m             C#m             D               E
e|------------------------------------------------------------------|
B|--------2---------------4---------------0---------------2-----0---|
G|------2-------2-------6-------6-------2-------2-------1-----------|
D|----4-------4-------6-------6-------4-------4-------2-------2-----|
A|------------------4-------4-------5-------5-----------------------|
E|--2-------2---------------------------------------0-------0-------|
Tap to rate this tab
 
# A B C D E F G H I J K L M N O P Q R S T U V W X Y Z