Song name
# A B C D E F G H I J K L M N O P Q R S T U V W X Y Z

Josh Ritter - Lights tab

This tab works for the entire song. You can modify it as you see fit to match
whatever version of the song your listening to.


e ----------------------------------------------------------|
B ----------------------------------------------------------|
G --------6-------------6-------------6------------6--------|
D ----6------6--------6-----6------6----6-------6-----6-----|
A -4----------------4------------4-----------4--------------|
E ----------------------------------------------------------|

e -----------------------------------------------------------|
B -----------------------------------------------------------|
G ----------6-------------6-------------6------------6-------|
D -----6------6--------6-----6--------6----6------ 6---6-----|
A -----------------------------------------------------------|
E--6--------------6---------------6------------6-------------|

e ----------------------------------------------------------|
B ----------------------------------------------------------|
G --------6-------------6-------------6------------6--------|
D ----4------4--------4-----4------4----4-------4-----4-----|
A -4----------------4------------4-----------4--------------|
E ----------------------------------------------------------|

e ----------------------------------------------------------|
B ----------------------------------------------------------|
G --------5-------------5-------------5------------5--------|
D ----6------6--------6-----6------6----6-------6-----6-----|
A -6----------------6------------6-----------6--------------|
E ----------------------------------------------------------|
Tap to rate this tab
# A B C D E F G H I J K L M N O P Q R S T U V W X Y Z