Song name
# A B C D E F G H I J K L M N O P Q R S T U V W X Y Z

Josh Rouse - Michigan tab

-------------------------------------------------------------------------------
			     MICHIGAN - Josh Rouse
-------------------------------------------------------------------------------
Tabbed by: Keith
Email: waxnwane1@spamnobueno.yahoo.com

Tuning: Standard
Capo 1st Fret (Notes not relative to capo, hope you find it easier to play as you don't 
make chord shapes. Just treat the 1's as open and play the rest as if there's no capo.)

The tabs I've seen have the intro & verse tabbed a little differently. From a post Josh 
made on his message board, and from watching him live, this is how he plays it. There 
little variations in that section - mostly when switching between the two parts.

Intro & Verse:
e|---------------------------------------------------------------------------|
B|---------------------------------------------------------------------------|
G|---------------------------------------------------------------------------|
D|-------5-----------7-------7-----------------------------------------------|
A|---7-------7---5-------5---------x2----------------------------------------|
E|-1---1---1---1---1---1---1---1---------------------------------------------|

e|---------------------------------------------------------------------------|
B|---------------------------------------------------------5-----------------|
G|-------5------------5-------5------------5-----------5---------------------|
D|---7-------7----5-------5-------5----7-------7---5-------------------------|
A|-1---1---1---1----1---1---1---1----1---1---1---1---1---1---1---------------|
E|---------------------------------------------------------------------------|
(Barre the 5th fret at the 4th string, then just lift up on the 4th string, 7th fret)

Chorus: (Strum)
e|--1---1---1--1-------------------------------------------------------------|
B|--1---1---1--1-------------------------------------------------------------|
G|--10--10--7--5-------------------------------------------------------------|
D|--10--10--7--5-------------------------------------------------------------|
A|--8---7---5--3-------------------------------------------------------------|
E|---------------------------------------------------------------------------|

End on (slowly):
e|--5------------------------------------------------------------------------|
B|--7------------------------------------------------------------------------|
G|--7------------------------------------------------------------------------|
D|--7------------------------------------------------------------------------|
A|--5------------------------------------------------------------------------|
E|---------------------------------------------------------------------------|
Tap to rate this tab
# A B C D E F G H I J K L M N O P Q R S T U V W X Y Z