Josh Rouse - Life tab

Song: Life
Artist: Josh Rouse
Tabbed By: tstein69
Tuning: Standard

PART ONE: Rhythm
          ^   v ^ ^ v   ^  v ^ ^ v   ^  v ^ ^ v   ^  v ^ ^ v
E|--------4--4-4-4-4----0--0-0-0-0---4--4-4-4-4---4--4-4-4-4----|
B|-----5--5--5-5-5-5----0--0-0-0-0---5--5-5-5-5---4--4-4-4-4----|
G|-4h6----6--6-6-6-6----1--1-1-1-1---6--6-6-6-6---4--4-4-4-4----|
D|--------7--7-7-7-7----2--2-2-2-2---7--7-7-7-7---6--6-6-6-6----|
A|--------x--x-x-x-x----2--2-2-2-2---x--x-x-x-x---4--4-4-4-4----|
E|--------x--x-x-x-x----x--x-x-x-x---x--x-x-x-x---4--4-4-4-4----|

   ^  v ^ ^ v   ^  v ^ ^ v   ^  v ^ ^ v  ^  v
E|-4--4-4-4-4---0--0-0-0-0---2--2-2-2-2--2--2-|
B|-5--5-5-5-5---0--0-0-0-0---2--2-2-2-2--2--2-| Immediately start  
G|-6--6-6-6-6---1--1-1-1-1---2--2-2-2-2--2--2-| from the beginning
D|-7--7-7-7-7---2--2-2-2-2---2--2-2-2-2--2--2-|
A|-x--x-x-x-x---2--2-2-2-2---4--4-4-4-4--4--4-|
E|-x--x-x-x-x---x--x-x-x-x---2--2-2-2-2--2--2-|


PART TWO: Lead (starts at the same time as rhythm)
E|-------4--4-----------------4----------------------------------|
B|-----5------7p5-----------5----7-9s12-9---s9-s9-9-9p7-5--------|
G|-4h6------------6-4---4h6-------------------------------4------|
D|---------------------------------------------------------------|
A|---------------------------------------------------------------|
E|---------------------------------------------------------------|
          ^  v ^ ^ v  ^  v
E|--------2--2-2-2-2--2--2-|
B|--------2--2-2-2-2--2--2-|
G|-4-6----2--2-2-2-2--2--2-|
D|-----7--2--2-2-2-2--2--2-|
A|--------4--4-4-4-4--4--4-|
E|--------2--2-2-2-2--2--2-|
Tap to rate this tab
 
# A B C D E F G H I J K L M N O P Q R S T U V W X Y Z