Song name
# A B C D E F G H I J K L M N O P Q R S T U V W X Y Z

Josh Rouse - It Looks Like Love tab

Josh Rouse
It Looks Like Love

Tabbed by: Evan Prokup

Chords used:

    Em   F   G  Am
E---------------------|
A----0---1---0---1----|
D----0---2---0---2----|
G----2---3---0---2----|
B----2---3---x---0----|
e----0-------3--------|

___________________________________

Intro / Bridge:

     F   G   F   G
E--------------------|
A----1---3---1---3---|
D----2---4---2---4---|
G----3---5---3---5---|
B----3---5---3---5---|
e---(1)-(3)-(1)-(3)--|


Verse:

      Em       F
E-----------------------|
A----0--0-----1--1------|
D----0--0-----2--2------|
G----2--2-----3--3------|
B----2--2-----3--3------|
e----0--0----(1)(1)-----|


Chorus:

     G  Am   F
E-----------------|
A----0---1---1----|
D----0---2---2----|
G----0---2---3----|
B----x---0---3----|
e----3------------|
Tap to rate this tab
 
# A B C D E F G H I J K L M N O P Q R S T U V W X Y Z