Song name
# A B C D E F G H I J K L M N O P Q R S T U V W X Y Z

Josh Rouse - Jersey Clowns tab

This is just A bit of the intro/verse to the song. It is in open D , at least that is 
I think it is. The rest of the song is really easy to figure out.....I don't really tab so 
with me.
D ------------------------------------------------------------------|
A ------------------------------------------------------------------|
F#-------------0--------------0----------------0--------------0-----|
D ---------------0--------------0----------------0--------------0---|
A ------5-5--------5----4-4--------4----2-2--------2-----0-0------0-|
D ------------------------------------------------------------------|


D -----------------------------------------------------------------|
A -----------------------------------------------------------------|
F#---------0-------------0------------0----------------------------|
D -----------0-------------0------------0--------------------------|
A -----------------------------------------------------------------|
D ---5-5-------5----4-4------4----2-2------2---2-2-2---0-----------|

D ------------------------------------------------------------------|
A --------------------------------------------2-0-------------------|
F#-------------0--------------0-------------------------------3-0---|
D ---------------0--------------0-----------------------------------|
A ------5-5--------5----4-4--------4----2-2-------2------0-0------0-|
D ------------------------------------------------------------------|

D ------------------------------------------------------------------|
A ------------------------------------------------------------------|
F#---------0-------------0------------0-----------------------------|
D -----------0-------------0------------0---------------------------|
A ------------------------------------------------------------------|
D ---5-5-------5----4-4------4----7-7------7---7-7-7----------------|
Tap to rate this tab
 
# A B C D E F G H I J K L M N O P Q R S T U V W X Y Z