Song name
# A B C D E F G H I J K L M N O P Q R S T U V W X Y Z

Josh Royse - My Kind Of Beautiful tab

Tab de Bastian Paumier

Josh royse: My kind of beautiful


Capo en 3


Je ne sais pas comment s'appellent ces accords, donc je vais les appeller:

R: 3
   0
   0
   0
   0
   3

W: -
   -
   -
   3
   3
   1

H: 0
   0
   2
   2
   0
   0


Intro

-------0---0--0-0----0--------0--0---0-0---0--------3--3-----------------3-3-|
-------1---1--0-0----0--------1--1---0-0---0--------0--0-----------------0-0-|
-------2---2--2-2----2--------2--2---2-2---2--------0--0-----------------0-0-|
----2----------------------2-------------------------------------0-----------|
-0----------------------2-------------------------2----------0~2---2----2----|
-----------------------------------------------3----------------------3------|

-------0---0--0-0----0--------0--0---0-0---0--------3--3-----------------3-3-|
-------1---1--0-0----0--------1--1---0-0---0--------0--0-----------------0-0-|
-------2---2--2-2----2--------2--2---2-2---2--------0--0-----------------0-0-|
----2----------------------2-------------------------------------0-----------|
-0----------------------2-------------------------2----------0~2---2----2----|
-----------------------------------------------3----------------------3------|


Am
Let's draw hearts that carve into the sand
C
I'll smile as I hold your hand
G
Let's listen to the waves crash
R
As our hearts collide.

Am
Let's lace our lips together when
C
Your hair flows in the gentle wind
G
Let's swim into the sunset
R
Where you and I can hide

Am          C       G          R
You are my kind of Beautiful, Beautiful
Am          C       G          R
You are my kind of Beautiful, Beautiful

Am
So chase what you feel I swear this is real
G
And Kiss me hard
Am
I'll stare in your eyes, share your butterflies
G
And steal your heart

W                             Am       H   Am     H
You're beautiful like I have never seen
W                             Am       H   Am     H
I want this so bad, I feel crazy. Crazy...

Am          C       G          R
You are my kind of Beautiful, Beautiful
Am          C       G          R
You are my kind of Beautiful, Beautiful

Am
So chase what you feel I swear this is real
G
And Kiss me hard
Am
I'll stare in your eyes, share your butterflies
G
And steal your heart

W                             Am       H   Am     H
You're beautiful like I have never seen
W                             Am       H   Am     H
I want this so bad, I feel crazy. Crazy...

Am          C       G          R
You are my kind of Beautiful, Beautiful
Am          C       G          R
You are my kind of Beautiful, Beautiful

Am          C       G          R


Am
Let's draw hearts that carve into the sand
C
I'll smile as I hold your hand
G
Let's listen to the waves crash
R
As our hearts collide

-------------3---|
-------------0---|
-------------0---|
------3------0---|
-0~2-----2---2---|
-------------3---|
Tap to rate this tab
# A B C D E F G H I J K L M N O P Q R S T U V W X Y Z