Song name
# A B C D E F G H I J K L M N O P Q R S T U V W X Y Z

Josh Santana - Hindi Ko Kaya tab

Help us improve GuitareTab! Take a short survey!
Hindi ko kaya by Josh Santana
Transcribed by: Daryl Tubaon (dhey_14@yahoo.com)

Ei guyz... xenxa na kau i2 lng ung nkapa ko eh!!! Pro kng alam o ung verse... paki-send n lng sakin, ok!


INTRO:
E---0-4-5-4----------0-----9-------0------0-----0-4-5--------------|
B------------9--7-5-----7----7---5---5--5---5---------7------------|
G---------------------------------------------5--------------------|
D------------------------------------------------------------------|
A------------------------------------------------------------------|
E------------------------------------------------------------------|

CHORUS:
E---0-4-5-4----------0-----9-------0------0-----0-4-5-4--2-2-------|
B------------9--7-5-----7----7---5---5--5---5----------------------|
G---------------------------------------------5--------------------|
D------------------------------------------------------------------|
A------------------------------------------------------------------|
E------------------------------------------------------------------|


E---0-4-5-4----------0-----9-------0------0-----0-4-5----0-0-------|
B------------9--7-5-----7----7---5---5--5---5---------7------------|
G---------------------------------------------5--------------------|
D------------------------------------------------------------------|
A------------------------------------------------------------------|
E------------------------------------------------------------------|


Don't forget to send to me ung chords ha?! Kng alam noy paki-share n lng sakin ok?!

*_* LyRaD_02

Hehehe.........
Related for Hindi Ko Kaya tab