Song name
# A B C D E F G H I J K L M N O P Q R S T U V W X Y Z

Josh Verdes - Save Me tab

Song: Save Me
Artist: Josh Verdes
Tabbed By: Arvin Hufana

Capo on the 2nd fret. 
Enjoy!

Intro
e|----------------------------------------|
B|----------------------------------------|
G|------9---------10-9-----2---------9-8--|
D|------9-------9----------2-------9------|
A|-9/11-----------------------------------|
E|-0~-----0-8-9--------0-2---0-6-7--------|

Verse 
e|------------------------------|
B|------------------------------|
G|------9-------9-----2----9-8--|
D|------9-------9-----2----9-9--|
A|-9/11-------------------------|
E|-0~-----0-8-9---0-2---0--7-7--|

Chorus
e|--------------|-------------|
B|--5--5--0--0--|--3--0-------|
G|--6--4--2--2--|--4--2--9-8--|
D|--7--4--2--3--|--4--2--9-9--|
A|-----------3--|-------------|
E|--5--4--2--0--|--3--2--7-7--|

Refrain
e|----------------|
B|-----5--5-------|
G|--9--4--6--8-8--|
D|--9--4--7--9-9--|
A|----------------|
E|--9--4--5--7-8--|

e|--------------|
B|-----5--5-----|
G|--2--4--6--8--|
D|--2--4--7--9--|
A|--------------|
E|--2--4--5--7--|
Tap to rate this tab
# A B C D E F G H I J K L M N O P Q R S T U V W X Y Z