Song name
# A B C D E F G H I J K L M N O P Q R S T U V W X Y Z

Josh Verdes - Meaningless Song tab

Help us improve GuitareTab! Take a short survey!
Tabbed by:proxas8

Note:my very fist tab. i love this guy and noticed no tabs for him, so i decided to try 
it. watched his video and i think this is how he plays it. sounds right.

http://joshverdes.com/


Tuning:Standard

e|------4--5------------------------------7--8-------------------------------|
B|------4--5-------------7--8-------------7--8-------------------------------|
G|------5--6-------------6--7-------------8--9-------------------------------|
D|------4--5---(tap)-----7--8-----(tap)---7--8-------------------------------|
A|------6--7------------------------------9--10------------------------------|
E|------4--5------------------------------7--8-------------------------------|

e|------7--8-----------------------------------------------------------------|
B|------7--8-------------9--10-----------------------------------------------|
G|------8--9-------------8---9-----------------------------------------------|
D|------7--8---(tap)-----9---10----(tap)-------------------------------------|
A|------9--10----------------------------------------------------------------|
E|------7--8-----------------------------------------------------------------|


| /  slide up
| \  slide down
| h  hammer-on
| p  pull-off
| ~  vibrato
| +  harmonic
| x  Mute note
===============================================================================
Related for Meaningless Song tab