Guitaretab - guitar tabs
Song name
# A B C D E F G H I J K L M N O P Q R S T U V W X Y Z

Josh Wilson - Savior Please tab

-------------------------------------------------------------------------------
			     Savior Please  Josh Wilson
-------------------------------------------------------------------------------
Tabbed by: Vic Dickenson
Email:shdicken@windstream.net

Tuning:BADGBe tune E to low B

intro
e|---------------------------------------------------------------------------|
B|---------------------------------------------------------------------------|
G|--------------------------4------------------------------------------------|
D|--4---4---4-----4---4---4-4------------------------------------------------|
A|-6-6-6-6-6-6-6p4-4-6-6-6-66------------------------------------------------|
E|5---5---5---7-----0---0---0------------------------------------------------|
								Savior Please
  Verse 1
e|---------------------------------------------------------------------------|
B|---------------------------------------------------------------------------|
G|-----------------------------------------------------4---4-----------------|
D|--4---4---4-----4---4---4---4---4---4---4---4---4---6-6-6-4--4---4---------|
A|-6-6-6-6-6-6-6p4-4-6-6-6-6-6-6-6-6-6-6-6-6-6-6-6-6-4---4----6-6-6-6--------|
E|5---5---5---7-----0---0---0---4---5---5---5---7------------4---4-----------|



e|---------------------------------------------------------------------------|
B|---------------------------------------------------------------------------|
G|-----------------------------------------------------4---4-----------------|
D|--4---4---4-----4---4---4---4---4---4---4---4---4---6-6-6-4--4---4---------|
A|-6-6-6-6-66-6p4-6-6-6-6-6-6-6-6-6-6-6-4-6-6-6-6-6-4---4----6-6-6-6--------|
E|5---5---5---7-----0---0---0---4---5---5---5---7------------7---5-----------|

[ Tab from: http://www.guitaretab.com/j/josh-wilson/180484.html ]
Chorus  power chords
   B  B  B  F# G#m G#m G#m F# E E F# F# B B F# E
e|---------------------------------------------------------------------------|
B|---------------------------------------------------------------------------|
G|---------------------------------------------------------------------------|
D|---------------------------------------------------------------------------|
A|---------------------------------------------------------------------------|
E|---------------------------------------------------------------------------|

   B  B  B  F# G#m G#m G#m F# E   F#   B 
e|---------------------------------------------------------------------------|
B|---------------------------------------------------------------------------|
G|---------------------------------------------------------------------------|
D|---------------------------------------------------------------------------|
A|---------------------------------------------------------------------------|
E|---------------------------------------------------------------------------|







interlude
e|---------------------------------------------------------------------------|
B|---------------------------------------------------------------------------|
G|---------------------------------------------------------------------9-8---|
D|6-----8--4---6---------9---8--4---6-------6----8--4----6------9---8------6-|
A|-6--------4---6---------9------4---6-------6-------4----6------9-----7-6-6-|
E|--9---11---7---9---------0-11---7---9-------9--11---7----9------0-11-----9-|

e|---------------------------------------------------------------------------|
B|---------------------------------------------------------------------------|
G|---------------------------------------------------------------------------|
D|6-----8--4---6---------9----8--9-----11------------------------------------|
A|-6--------4---6---------9-------9----11------------------------------------|
E|--9---11---7---9---------0--11---12--14------------------------------------|





| /  slide up
| \  slide down
| h  hammer-on
| p  pull-off
| ~  vibrato
| +  harmonic
| x  Mute note
===============================================================================

Related for Savior Please tab