Song name
# A B C D E F G H I J K L M N O P Q R S T U V W X Y Z

Josh Wilson - Before The Morning tab

Intro:
   G
e|-------------------------------------------------|
B|-------------------------------------------------|
G|-------0----------0----------0-------------------|
D|---0----------0----------0--------0----0---------|
A|--------------------------------9---10-----------|
E|-3---3----------3----------3---------------------|

   C
e|-------------------------------------------------|
B|-------------------------------------------------|
G|-------0----------0----------0-------------------|
D|---0----------0----------0--------0----0---------|
A|-3---3----------3----------3----9---10-----------|
E|-------------------------------------------------|

   Em
e|-------------------------------------------------|
B|-------------------------------------------------|
G|-------0----------0----------0-------------------|
D|---0----------0----------0--------0----0---------|
A|--------------------------------9---10-----------|
E|-0---0----------0----------0---------------------|

   C                    D
e|-------------------------------------------------|
B|-------------------------------------------------|
G|-------0----------0---------0----------0---------|
D|---0----------0---------0----------0-------------|
A|-3---3----------3---3/5---5----------5-----------|
E|-------------------------------------------------|

Verse 1: (continue alternate picking) (Do not play the 9,0,10,0) for verses
G                     C
Do you wonder why you have to
                     Em
Feel the things that hurt you
                     C                 D
If thereís a God who loves you where is He now
G                          C
Maybe there are things you canít see
                         Em
And all those things are happening
                  C
To bring a better ending
        D              C           D
Someday somehow youíll see, youíll see


Chorus chords used:
   G  D/F# Em G/B  C   D
e|-3---3---3---3---3---3--------------------------|
B|-3---3---3---3---3---3--------------------------|
G|-0---2---0---0---0---2--------------------------|
D|-0---0---2---0---x---0--------------------------|
A|-x---x---2---2---3------------------------------|
E|-3---2---0--------------------------------------|


Chorus:
G                                  D/F#
 Would you dare, would you dare to believe
Em                           G/B
 That you still have a reason to sing
C
 Cause the pain that youíve been feeling
D
 It canít compare to the joy thatís coming
G                               D/F#
 So hold on, you gotta wait for the light
Em
 Press on and just fight the good fight
C
 Cause the pain that youíve been feeling
D
 Itís just the dark before the morning

Verse 2:
G                           C
My friend you know how this all ends
                      Em
You know where youíre going
                               C
You just donít know how youíll get there
         D
So say a prayer
    G                                        C
And hold on cause thereís good for those who love God
                  Em
But life is not a snapshot
                       C                       D
It might take a little time but youíll see the bigger picture


Chorus

Bridge (x2): (Picking should be somewhat similar to the intro/verse)
C        D        G/B       C
Once you feel the weight of glory
C        D         G/B     C              (D)
All your pain will fade to memory (memory, yeah)


Chorus
G                                  D/F#
 Would you dare, would you dare to believe
Em                           G/B
 That you still have a reason to sing
C
 Cause the pain that youíve been feeling
D
 It canít compare to the joy thatís coming
G                               D/F#
 So hold on, you gotta wait for the light
Em
 Press on and just fight the good fight
C
 Cause the pain that youíve been feeling
Em
 Itís just the hurt before the healing
Am               G/B
 Oh the pain that youíve been feeling
C                D
 Itís just the dark before the morning
Tap to rate this tab
# A B C D E F G H I J K L M N O P Q R S T U V W X Y Z