Song name
# A B C D E F G H I J K L M N O P Q R S T U V W X Y Z

Josh Wilson - Carry Me tab

Capo on 1st fret


e|--------------------------------------------------------------|
G|-8-------8-------8------5-----12-------12-------12-----7------|
B|-------0-------0---------------------0---------0--------------|
D|----9-------9---------------------12-------12-----------------|
A|-7-------7-----------3--------10-------10------------5--------|
E|--------------------------------------------------------------|

Thats basically the intro. And for the strumming parts,

e|------------------------------|
G|--8----3-----12-----7---------|
B|--0----5------0-----0---------|
D|--9----0-----12-----7---------|
A|--7----5-----10-----5---------|
E|------------------------------|
Tap to rate this tab
# A B C D E F G H I J K L M N O P Q R S T U V W X Y Z