Song name
# A B C D E F G H I J K L M N O P Q R S T U V W X Y Z

Joshua Andy - Does Not Have One Yet tab

-------------------------------------------------------------------------------
			     SONG NAME - Band Name
-------------------------------------------------------------------------------
Tabbed by:Joshua Andy
Email:Jdandyxx@hotmail.com

Tuning: e B G D A E

e|---------0--------------0--------------------------------------------------|
B|-----------------1----------------1----------------------------------------|
G|------------2-----------------2--------------------------------------------|
D|---------------------------------------(X2)--------------------------------|
A|-----3------------------3--------------------------------------------------|
E|---------------------------------------------------------------------------|

e|------------0---------------0----------------------------------------------|
B|--------------------1-------------------1----------------------------------|
G|----------------2------------------2---------------------------------------|
D|----------------------------------------------(X2)-------------------------|
A|------0---------------------0----------------------------------------------|
E|---------------------------------------------------------------------------|

e|------------1----------------1---------------------------------------------|
B|-------------------2-------------------2-----------------------------------|
G|----------------3-------------------3--------------------------------------|
D|-----------------------------------------------(X2)------------------------|
A|-------0---------------------0---------------------------------------------|
E|---------------------------------------------------------------------------|

e|---------2---------------2-------------------------------------------------|
B|-----------------3----------------3----------------------------------------|
G|-------------2-----------------2-------------------------------------------|
D|---------------------------------------------------------------------------|
A|----0--------------------0-------------------------------------------------|
E|---------------------------------------------------------------------------|

e|---------2------------2h3--------------------------------------------------|
B|----------------3-----------------3----------------------------------------|
G|-------------2----------------2--------------------------------------------|
D|---------------------------------------------------------------------------|
A|----0------------------0---------------------------------------------------|
E|---------------------------------------------------------------------------|

e|----------3---------------3------------------------------------------------|
B|------------------3----------------3---------------------------------------|
G|--------------2-----------------2------------------------------------------|
D|---------------------------------------------------------------------------|
A|----0---------------------0------------------------------------------------|
E|---------------------------------------------------------------------------|


************************************

| /   slide up
| \   slide down
| h   hammer-on
| p   pull-off
| ~   vibrato
| +   harmonic
| x   Mute note
| b   Bend
Tap to rate this tab
# A B C D E F G H I J K L M N O P Q R S T U V W X Y Z