Song name
# A B C D E F G H I J K L M N O P Q R S T U V W X Y Z

Joshua Bell - Annas Theme tab

e----------------------|--------------------|---------------
B----------------------|--------------------|---------------
G-----------------5-4--|--2-4-5--7--4--0----|-------------0-
D-0--2----0--2--3------|-----------------0--|---0--2-3--2---
A----------------------|--------------------|---------------
E----------------------|--------------------|---------------



e----------------------|--------------------|---------------
B----------------------|--------------------|---------------
G-----------------5-4--|--2-4-5--7--5-4-2-1-|-2--4--1-2-----
D-0--2----0--2--3------|--------------------|---------------
A----------------------|--------------------|---------------
E----------------------|--------------------|---------------
Tap to rate this tab
# A B C D E F G H I J K L M N O P Q R S T U V W X Y Z