Song name
# A B C D E F G H I J K L M N O P Q R S T U V W X Y Z

Joshua Fur - Little Love Song tab

Tuning: Half-step down (eb, Bb, Gb, Db, Ab, Eb)

Its a fun blues-y type song. Enjoy!


INTRO
eb|---------0-----------------0-------------------------------0----------------|
Bb|---------0------2/-4------------4---------------------0-------0-------------|
Gb|---------1-------------------------------------2----------------------------|
Db|---------2-------------------------------------0----------------------------|
Ab|--2-------------2/-4---------------------------x------2---------------------|
Eb|-----0--------------------------------3---2----2----------------------------|


                  D    U    D                D     U
eb|--------------------------------------------------------------12+-----------|
Bb|------------------------------------------9------------12+------------------|
Gb|---------------13---13---13---------------9-----8---------------------------|
Db|---------------11---11---11---------------8-----7---------------------------|
Ab|--0/11---11----0----0----0------10---9----9-----x---------------------------|
Eb|------------------------------------------------7---------------------------|


Repeat a second time WITHOUT the harmonics on the 12th fret to finish off the intro.

The verses are the same as the intro so repeat it TWICE (NO HARMONICS ON 12th) but on
THIRD time play this...


                                           D     D        U
eb|--------0--------------0----------------------------------------------------|
Bb|--------0-----2/-4---------4------------------------------------------------|
Gb|--------1-------------------------------3-----3/-5-----5--------------------|
Db|--------2-------------------------------x-----x/-x-----x--------------------|
Ab|--2-----------2/-4------------4---------4-----4/-6-----6--------------------|
Eb|-----0------------------------------2---2-----2/-4-----4--------------------|


     D   U   U   D     U   D   U   D             U   D   U      D   U   D
eb|--4---4---4---4-----x---3---x---2----2--------2---2---2---------------------|
Bb|--5---5---5---5-----x---4---x---3-------3-----3---3---3---------------------|
Gb|--x---x---x---x-----x---x---x---x-------------x---x---x------2---2---2------|
Db|--6---6---6---6-----x---5---x---4-------------4---4---4------2---2---2------|
Ab|--4---4---4---4-----x---3---x---2-------------2---2---2------0---0---0------|
Eb|----------------------------------------------------------------------------|


     U   U
eb|-----------------------------------2/-4---4\-2-------2---0------------------|
Bb|--------------12---11---10--------------------------------------------------|
Gb|--4---4----------------------------2/-4---4\-2---2-------1------------------|
Db|--4---4---------------------------------------------------------------------|
Ab|--x---x-------11---10---9---------------------------------------------------|
Eb|--4---4-----------------------0---------------------------------------------|

eb|---------------------------------------------------------------------------|
Bb|---------------------------------------------------------------------------|
Gb|------2/-3\-2--------------------------------------------------------------|
Db|------1/-2\-1--------------------------------------------------------------|
Ab|--0---2/-3\-2--------------------------------------------------------------|
Eb|---------------------------------------------------------------------------|

  This is all you need to know for the whole song until the outro bit which is...

OUTRO

    D    D    D
eb|------------9~~~-----9-----------2/-4--4\-2--------2---0--------------------|
Bb|--12---11---10~~~----10-----------------------------------------------------|
Gb|--x----x----x--------x-----------2/-4--4\-2----2-------1--------------------|
Db|--13---12---11~~~----11-----------------------------------------------------|
Ab|--11---10---9~~~-----9------------------------------------------------------|
Eb|----------------------------0-----------------------------------------------|

eb|--4-------------------------------------------------------------------------|
Bb|-----5----7----5h7p5------5---5---------------------------------------------|
Gb|-----------------------6------------4/-5~~~---------------------------------|
Db|------------------------------------3/-4~~~---------------------------------|
Ab|------------------------------------4/-5~~~---------------------------------|
Eb|------------------------------------------------0---------------------------|


************************************

| /   slide up
| \   slide down
| h   hammer-on
| p   pull-off
| ~   hold note
| +   harmonic
| x   Mute note
| D   Down stroke
| U   Up stroke

************************************
Tap to rate this tab
# A B C D E F G H I J K L M N O P Q R S T U V W X Y Z