Song name
# A B C D E F G H I J K L M N O P Q R S T U V W X Y Z

Joshua Fur - Dont Lead Me On tab

INTRO                                                get these two with RH
Eb----------(12)--------7------------0-----4----------------(12)--|
Bb-----(12)-------------9--7------7-----0--5--5----5----(12)------|
Gb----------------------8--8------8--------6--4----6--------------|
Db----------------------9--9------9--------6--6----6--------------|
Ab----------------------7--7------6--------4----------------------|
Eb-----------------0--------------------------7----6--------------|


Eb-------------0----0----0--0-----------------------------|
Bb----5--5-----0----0----0--0----2------8-----------------|
Gb----6--5-----1----8----1--2----1------8-----------------|
Db----6--4-----2----9----2--2----2------------------------|
Ab-------------2-----------------0------------------------|
Eb----5--5-----0----9----2--2-----------7-----------------|


VERSE 1
Phrase 1
Eb----------7------------0-----4-------------|
Bb----------9--7------7-----0--5--5----5-----|
Gb----------8--8------8--------6--4----6-----|
Db----------9--9------9--------6--6----6-----|
Ab----------7--7------6--------4-------------|
Eb------0-------------------------7----6-----|


Eb-------------0----0----0--0-----------------|
Bb----5--5-----0----0----0--0----2------8-----|
Gb----6--5-----1----8----1--2----1------8-----|
Db----6--4-----2----9----2--2----2------------|
Ab-------------2-----------------0------------|
Eb----5--5-----0----9----2--2-----------7-----|

Phrase 2
Eb----------7------------0-----4-------------|
Bb----------9--9------7-----0--5--5----5-----|
Gb----------8--7------8--------6--4----6-----|
Db----------9--9------9--------6--6----6-----|
Ab----------7--7------6--------4-------------|
Eb------0-------------------------7----6-----|

Eb----------------------------0---0-------------------|
Bb----5--5-----12----10--9----0---0----0--------------|
Gb----6--5-----13----10--9----1---4----2--2--0--0h1---|
Db----6--4-----12-------------2---4----2--2--0--------|
Ab--------------------------------2----0--0-----------|
Eb----5--5-----12----9--------2-----------4--2--0-----|


CHORUS
Eb---0---0---0---0----0----0----------------|
Bb---0---0---0---0----0----3----------------|
Gb---4---4---4---4----1----0----------------|
Db---2---0---2---2----2----0----4--6--7-----|
Ab---2-------0---0---------5----6--7--9-----|
Eb---0-----------4----2---------7--0--0-----|

                                   This ending only   Every other time
                                   used the 1st time
Eb--------------------------0---0---|-----------0----|----------------|
Bb---5---5----12----10--9---0---0---|--0--------0----|-0--------------|
Gb---4---4----13----10--9---1---4---|--2--2-----2p1--|-2--2--0--0p1---|
Db------------12------------2---4---|--2--2-----2----|-2--2--0--2-----|
Ab-------5----------------------2---|--0--------2----|-0--------------|
Eb---0--------12----9-------2-------|-----4-----0----|----4--2--0-----|


Little Pre-Verse part
Eb----------------------------0---0------------0--------|
Bb----5--5-----12----10--9----0---0----0-------0--------|
Gb----6--5-----13----10--9----1---4----2--2----2p1------|
Db----6--4-----12-------------2---4----2--2----2--------|
Ab--------------------------------2----0--0----2--------|
Eb----5--5-----12----9--------2-----------4----0--------|


Verse 2 is pretty much the same as verse 1

Then you play the chorus again
and then this:

BRIDGE
Eb----0----0------|
Bb----0----0------|
Gb----x----x------|
Db----4----6------|
Ab----x----x------|
Eb----2----4------|

Eb----0----0----0------0---0----- |
Bb----3----0----0------0---0-----:|
Gb----0----2----4------x---x----- |  Repeat 1x
Db----0----2----2------4---6----- |
Ab----5----4----2------x---x-----:|
Eb--------------0------2---4----- |

Eb----0----0----0-----0------0-------------|
Bb----3----0----0-----0------0-------------|
Gb----0----2----4-----4------4-------(9)---|
Db----0----2----2-----2------4-------(9)---|
Ab----5----4----2-----3------2-------------|
Eb--------------0------------------7-------|


Then it's basically the same progression as the verses
Then the chorus, and then this to end it.

Eb----------------------------0---0-------------------------|
Bb----5--5-----12----10--9----0---0----0--------------------|
Gb----6--5-----13----10--9----1---4----2--2--0--0h1---------|
Db----6--4-----12-------------2---4----2--2--0--2----2/4--2-|
Ab--------------------------------2----0--0-----------------|
Eb----5--5-----12----9--------2-----------4--2--0-----------|

Eb----0-----0------|
Bb----0-----0------|
Gb----4-----2------|
Db----4-----2------|
Ab----6-----4------|
Eb-----------------|



Eb---------------------------(12)-------------|
Bb-------------------(12)---------------------|
Gb---------------11-------11------------(22)--|
Db-----------13--------------------(26)-------|
Ab-------11-----------------------------------|
Eb----0---------------------------------------|

the 26th and 22nd fret number are really not on the fret board.
They're at a point over the hole in the guitar, which you will have find.
To hit these two harmonics, you will have to keep that chord down with your left hand to 
the harmonics with your right hand.
Fun, right?

And that's it. Enjoy!
(Joshua Für)
Tap to rate this tab
# A B C D E F G H I J K L M N O P Q R S T U V W X Y Z