Song name
# A B C D E F G H I J K L M N O P Q R S T U V W X Y Z

Joshua James - Pitchfork tab

Joshua James
Pitchfork - Build Me This
Standard Tuning
Tabbed by Jordan McMahon

Very simple song, he just alternates between a few different things for the entire song.

The main part of the song is simply this pattern

E--------------------------------------------------------------------|
B--------------------------------------------------------------------|
G--------------------------------------------------------------------|
D------6-------6-------6-------6-------6-------6-------6-------6-----|
A----7---7---7---7---7---7---7---7---7---7---7---7---7---7---7---7---|
e--0-------0-------0-------0-------5-------5-------5-------5---------|

When it gets more rowdy at the end he is just playing open chords

E and A2
And for the last few words he goes back to picking the same patern as before.
Listen to the song for timing

Alternatively in some videos when he plays the picking part slightly differently.
Mostly it seems like he does that when using an acoustic guitar, the progression is as follows.

E--------------------------------------------------------------------|
B--------------------------------------------------------------------|
G------1-------1-------1-------1-------2-------2-------2-------2-----|
D----2---2---2---2---2---2---2---2---2---2---2---2---2---2---2---2---|
A--2-------2-------2-------2-------0-------0-------0-------0---------|
e--------------------------------------------------------------------|

Once again, very simple song I hope you have fun playing it, feel free to post any 
corrections or improvements.

- Jordan
Tap to rate this tab
# A B C D E F G H I J K L M N O P Q R S T U V W X Y Z