Song name
# A B C D E F G H I J K L M N O P Q R S T U V W X Y Z

Joshua Radin - Id Rather Be With You tab

This is how I play "I'd Rather Be With You" by Joshua Radin from his new
album Simple Times. It's not 100% accurate, but it's close.

Capo on 1


Intro

      C                 G7               Am               G
e|----------------|------------------|---------------|-------3-------|
B|--------1-------|--------0h1-------|-------1-------|---------------|
G|----0-----0---0-|-----0------0---0-|---2-----2---2-|---0-----0---0-| Play
D|------2-----2---|-------0------0---|-----2-----2---|-----0-----0---|  x2
A|--3-------------|-0h2--------------|-0-------------|---------------|
E|----------------|------------------|---------------|-3-------------|

Verse

      C                 G7               Am               G
e|----------------|------------------|---------------|-------3-------|
B|--------1-------|--------0h1-------|-------1-------|---------------|
G|----0-----0---0-|-----0------0---0-|---2-----2---2-|---0-----0---0-| Play
D|------2-----2---|-------0------0---|-----2-----2---|-----0-----0---|  x2
A|--3-------------|-0h2--------------|-0-------------|---------------|
E|----------------|------------------|---------------|-3-------------|

      C                 G7               Am               G
e|----------------|----------------|---------------|-------3-------|
B|--------1-------|------0h1-------|-------1-------|---------------|
G|----0-----0---0-|---0------0---0-|---2-----2---2-|---0-----0---0-| Play
D|------2-----2---|-----0------0---|-----2-----2---|-----0-----0---|  x2
A|--3-------------|-2--------------|-0-------------|---------------|
E|----------------|----------------|---------------|-3-------------|

Chorus

      F                 G               C     G7        Am
e|--------1-------|/------3------|-----------------|---------------|
B|----1-----1---1-|/--3-----3--3-|--------1-------1|-------1-------|
G|------2-----2---|/----4----4---|---0--------0----|---2-----2---2-| 
D|--3-------------|/5------------|-----2--------0--|-----2-----2---| 
A|----------------|--------------|-3--------2------|-0-------------|
E|----------------|--------------|-----------------|---------------|

      F                 G              Am             G
e|--------1-------|/------3------|---------------|-------3-------|
B|----1-----1---1-|/--3-----3--3-|-------1-------|---------------|
G|------2-----2---|/----4----4---|---2-----2---2-|---0-----0---0-| 
D|--3-------------|/5------------|-----2-----2---|-----0-----0---| 
A|----------------|--------------|-0-------------|---------------|
E|----------------|--------------|---------------|-3-------------|

      F                 G               C    G7         Am
e|--------1-------|/------3------|-----------------|---------------|
B|----1-----1---1-|/--3-----3--3-|--------1-------1|-------1-------|
G|------2-----2---|/----4----4---|---0--------0----|---2-----2---2-| 
D|--3-------------|/5------------|-----2--------0--|-----2-----2---| 
A|----------------|--------------|-3--------2------|-0-------------|
E|----------------|--------------|-----------------|---------------|

      F                 G           G7
e|--------1-------|/------3------|-------|
B|----1-----1---1-|/--3-----3--3-|-------|
G|------2-----2---|/----4----4---|-------| This last G7 is a lead-in
D|--3-------------|/5------------|-----0-| to the intro, played once
A|----------------|--------------|-0h2---| before the next verse
E|----------------|--------------|-------|

Bridge

      F                 Am            G               G
e|--------1-------|---------------|---------------|---------------|
B|----1-----1---1-|-------1-------|-------0-------|-------0-------|
G|------2-----2---|---2-----2---2-|---0-----0---0-|---0-----0---0-|
D|--3-------------|-----2-----2---|-----0-----0---|-----0-----0---|
A|----------------|-0-------------|---------------|---------------|
E|----------------|---------------|-3-------------|-3-------------|

      F                 Am            G               G
e|--------1-------|---------------|-------3-------|-------3-------|
B|----1-----1---1-|-------1-------|---------------|---------------|
G|------2-----2---|---2-----2---2-|---0-----0---0-|---0-----0---0-|
D|--3-------------|-----2-----2---|-----0-----0---|-----0-----0---|
A|----------------|-0-------------|---------------|---------------|
E|----------------|---------------|-3-------------|-3-------------|

      F                 Am            G               G
e|--------1-------|---------------|---------------|---------------|
B|----1-----1---1-|-------1-------|-------0-------|-------0-------|
G|------2-----2---|---2-----2---2-|---0-----0---0-|---0-----0---0-|
D|--3-------------|-----2-----2---|-----0-----0---|-----0-----0---|
A|----------------|-0-------------|---------------|---------------|
E|----------------|---------------|-3-------------|-3-------------|

      F                 Am            G               
e|--------1-------|---------------|-3-------------|
B|----1-----1---1-|-------1-------|-3-------------|
G|------2-----2---|---2-----2---2-|-0-------------|
D|--3-------------|-----2-----2---|-0-------------|
A|----------------|-0-------------|-2-------------|
E|----------------|---------------|-3-------------|

Chorus v2

      F                 G               C     G7        Am
e|--------1-------|/------3------|-----------------|---------------|
B|----1-----1---1-|/--3-----3--3-|--------1-------1|-------1-------|
G|------2-----2---|/----4----4---|---0--------0----|---2-----2---2-| 
D|--3-------------|/5------------|-----2--------0--|-----2-----2---| 
A|----------------|--------------|-3--------2------|-0-------------|
E|----------------|--------------|-----------------|---------------|

      F                 G              Am             G
e|--------1-------|/------3------|---------------|-------3-------|
B|----1-----1---1-|/--3-----3--3-|-------1-------|---------------|
G|------2-----2---|/----4----4---|---2-----2---2-|---0-----0---0-| 
D|--3-------------|/5------------|-----2-----2---|-----0-----0---| 
A|----------------|--------------|-0-------------|---------------|
E|----------------|--------------|---------------|-3-------------|

      F                 G               C    G7         Am
e|--------1-------|/------3------|-----------------|---------------|
B|----1-----1---1-|/--3-----3--3-|-------1--------1|-------1-------|
G|------2-----2---|/----4----4---|---0--------0----|---2-----2---2-| 
D|--3-------------|/5------------|-----2--------0--|-----2-----2---| 
A|----------------|--------------|-3--------2------|-0-------------|
E|----------------|--------------|-----------------|---------------|

      F                 G               C    
e|--------1-------|/------3------|-----------------|
B|----1-----1---1-|/--3-----3--3-|-------1--------1|
G|------2-----2---|/----4----4---|---0--------0----|
D|--3-------------|/5------------|-----2--------2--| 
A|----------------|--------------|-3--------3------|
E|----------------|--------------|-----------------|

      F                 G               
e|--------1-------|/------3------|
B|----1-----1---1-|/--3-----3--3-|
G|------2-----2---|/----4----4---|
D|--3-------------|/5------------|
A|----------------|--------------|
E|----------------|--------------|

Outro

    C            
e|--0-0-----0-----|
B|--1-1-----1-----|
G|--0-0-----0-----|
D|--2-2h3p0-2-----|
A|--3-3-----3-----|
E|----------------|



The order goes:

Intro
Verse
Chorus
Verse
Chorus
Bridge
Chorus v2
Outro 

Enjoy!
Tap to rate this tab
# A B C D E F G H I J K L M N O P Q R S T U V W X Y Z