Song name
# A B C D E F G H I J K L M N O P Q R S T U V W X Y Z

Joshua Radin - Only You tab

This is my cover of Yazoo/Joshua Radin's song Only You.
You can see my cover on Youtube at:
http://www.youtube.com/watch?v=h05nGtWcdQE

I was asked for this tab so I hope it helps =]!!

Oh and I recommend varying the hammer on/pull off on the D at the end of the verse!!

Standard Tuning. Capo 1st Fret.

Intro/Verses

e|-------------------2-------------------------2--------|
B|------3--------------3---3------0--------------3---3--|
G|--------0---0----2-----2----------0---0----2-----2----|
D|----0-----0----0--------------2-----2----0------------|
A|------------------------------------------------------|
E|--3-------------------------0-------------------------|

e|-----------------------------------3------------2h3p2--------|
B|------1--------------1---------------3----------------3---3--|
G|--------0---0--0h2-----0---0-------------0----2---------2----|
D|----2-----2--------3-----2-------0-----0----0----------------|
A|--3----------------------------------------------------------|
E|-------------------------------3-----------------------------|


Chorus

e|--------------------------------3p2-----0h2---2h3--------------------------------------------|
B|------1-----------1---------3-------3---------3---------3-------3-------1-----------1--------|
G|----------0----------0----2---2-------2-----2---------0---0---0---0---------0---------0---0--|
D|----2-------0h2---------0---------------------------------------------2---2---0h2------------|
A|--3-----3-------3---3---------------------------------------2-------3-------------3-----3----|
E|----------------------------------------------------3----------------------------------------|


e|--------------------------------3p2-----0h2---2h3--|
B|------1-----------1---------3-------3---------3----|
G|----------0----------0----2---2-------2-----2------|
D|----2-------0h2---------0--------------------------|
A|--3-----3-------3---3------------------------------|
E|---------------------------------------------------|

Thanks for looking!!
Tap to rate this tab
# A B C D E F G H I J K L M N O P Q R S T U V W X Y Z