Song name
# A B C D E F G H I J K L M N O P Q R S T U V W X Y Z

Joshua Radin - Today tab

Artist: Joshua Radin
Song: Today
Album: I dont know...
Tabbed by: necriononguitar
e-mail: tim.rathgen@gmx.de

Tuning: Standard (use a capo 3rd fret, but u dont need it)

>>>There Chord-Versions are pretty good, but the solo is a mess<<<

Im VERY sure this is right. i have the skills, this is not my first solo-tab
and its easy to play. so please dont complain!! Thanks


Part 1
           Am                                    C
E--------------------------------------------------------------------|
B--------------------------------------------------------------------|
G--7h8p7-----7---8-10---7~-----------7h8p7-----7---8-10--10/12~------|
D---------8---------------------------------8------------------------|
A--------------------------------------------------------------------|
E--------------------------------------------------------------------|

               Am                          C
E--------------------------------------------------------------|
B--------------------------------------------------------------|
G---7h8p7-----7--8-10---7~------7---8---10h12(~)---10---8------|
D----------8---------------------------------------------------|
A--------------------------------------------------------------|
E--------------------------------------------------------------|

  (very fast)       D                       C
E------------13~---11---10--10h11--------------------------|
B--------11------------------------11--13---10---11~-------|
G--10h12---------------------------------------------------|
D----------------------------------------------------------|
A----------------------------------------------------------|
E----------------------------------------------------------|

                            D
E----------------------------------------------------------------------|
B--10h11p10------10-----11p10------11p10------11p10------11p10---------|
G------------12---------------12---------12---------12---------12------|
D----------------------------------------------------------------------|
A----------------------------------------------------------------------|
E----------------------------------------------------------------------|

                          C
E-----------------------10-11-13---10-11------10---------|
B--11p10------10-11-13---------------------13------------|
G---------12---------------------------------------------|
D--------------------------------------------------------|
A--------------------------------------------------------|
E--------------------------------------------------------|


Part 2
   G                    C                   G                     C
E--7-/9---9------13--13--13--11---10----------6------8------9-----9---8---6--|
B--10/10--10-----15--15--15--13---9--------/8----/10----/11-------11--10--8--|
G----------------------------------------------------------------------------|
D----------------------------------------------------------------------------|
A----------------------------------------------------------------------------|
E----------------------------------------------------------------------------|


Part 3 (after the last/following chorus theres a little part)
    G                              C                                 G
E---------------------------------------------------------------------------|
B---------------------------------------------------------------------------|
G-----7----7----------8-----8-----------10------10h12p10--------------------|
D--/8----8-------8/10----10-------10/12-----12-------------12\10\8---(8)----|
A---------------------------------------------------------------------------|
E--------------------------------------------------------------------10-----|

Thats it! I hope u enjoyed it. Im pretty sure its correct, so please give me a feedback!
More than 30 more tabs on my profile... check them out!

Cheers...
Tap to rate this tab
# A B C D E F G H I J K L M N O P Q R S T U V W X Y Z