Song name
# A B C D E F G H I J K L M N O P Q R S T U V W X Y Z

Joshua Radin - Id Rather Be With You tab

Pretty much the same as this other version except I made a few minor changes & added lyrics


Capo 1



Intro
 
    C                 G                 Am               G
e|----------------|------------------|---------------|-------3-------|
B|-----1----------|--------0h1-------|-------1-------|---------------|
G|----------0---0-|-----0------0---0-|---2-----2---2-|---0-----0---0-| 
D|------------2---|-------0------0---|-----2-----2---|-----0-----0---| 
A|--3-------------|-0h2--------------|-0-------------|---------------|
E|----------------|------------------|---------------|-3-------------|

     C                 G                 Am               G
e|----------------|------------------|---------------|-------3-------|
B|--------1-------|--------0h1-------|-------1-------|---------------|
G|----0-----0---0-|-----0------0---0-|---2-----2---2-|---0-----0---0-| 
D|------2-----2---|-------0------0---|-----2-----2---|-----0-----0---|  
A|--3-------------|-0h2--------------|-0-------------|---------------|
E|----------------|------------------|---------------|-3-------------|

Verse 1

     C                 G                 Am               G
e|----------------|------------------|---------------|-------3-------|
B|--------1-------|--------0h1-------|-------1-------|---------------|
G|----0-----0---0-|-----0------0---0-|---2-----2---2-|---0-----0---0-| 
D|------2-----2---|-------0------0---|-----2-----2---|-----0-----0---|  
A|--3-------------|-0h2--------------|-0-------------|---------------|
E|----------------|------------------|---------------|-3-------------|

     sitting       here,   on this         lonely       dock

    C                 G                 Am               G
e|----------------|------------------|---------------|-------3-------|
B|--------1-------|--------0h1-------|-------1-------|---------------|
G|----0-----0---0-|-----0------0---0-|---2-----2---2-|---0-----0---0-| 
D|------2-----2---|-------0------0---|-----2-----2---|-----0-----0---|  
A|--3-------------|-0h2--------------|-0-------------|---------------|
E|----------------|------------------|---------------|-3-------------|

     Watch  the     rain    play on the    ocean    top 

    C                 G                 Am               G
e|----------------|------------------|---------------|-------3-------|
B|--------1-------|--------0h1-------|-------1-------|---------------|
G|----0-----0---0-|-----0------0---0-|---2-----2---2-|---0-----0---0-| 
D|------2-----2---|-------0------0---|-----2-----2---|-----0-----0---|  
A|--3-------------|-0h2--------------|-0-------------|---------------|
E|----------------|------------------|---------------|-3-------------|
 
   All   the     things   I feel I     need to       say

     C                 G                 Am               G
e|----------------|------------------|---------------|-------3-------|
B|--------1-------|--------0h1-------|-------1-------|---------------|
G|----0-----0---0-|-----0------0---0-|---2-----2---2-|---0-----0---0-| 
D|------2-----2---|-------0------0---|-----2-----2---|-----0-----0---|  
A|--3-------------|-0h2--------------|-0-------------|---------------|
E|----------------|------------------|---------------|-3-------------|

     can't     explain         in     any   other    way
 

Chorus

I gotta be...

      F                 G               C     G7        Am
e|--------1-------|/------3------|-----------------|---------------|
B|----1-----1---1-|/--3-----3--3-|--------1-------1|-------1-------|
G|------2-----2---|/----4----4---|---0--------0----|---2-----2---2-| 
D|--3-------------|/5------------|-----2--------0--|-----2-----2---| 
A|----------------|--------------|-3--------2------|-0-------------|
E|----------------|--------------|-----------------|---------------|

 bold gotta jump in the cold water gotta grow older with a girl like you

      F                 G              Am             G
e|--------1-------|/------3------|---------------|-------3-------|
B|----1-----1---1-|/--3-----3--3-|-------1-------|---------------|
G|------2-----2---|/----4----4---|---2-----2---2-|---0-----0---0-| 
D|--3-------------|/5------------|-----2-----2---|-----0-----0---| 
A|----------------|--------------|-0-------------|---------------|
E|----------------|--------------|---------------|-3-------------|

Finally see you are naturally The one to make it so easy When you show me the truth 

      F                 G               C    G7         Am
e|--------1-------|/------3------|-----------------|---------------|
B|----1-----1---1-|/--3-----3--3-|--------1-------1|-------1-------|
G|------2-----2---|/----4----4---|---0--------0----|---2-----2---2-| 
D|--3-------------|/5------------|-----2--------0--|-----2-----2---| 
A|----------------|--------------|-3--------2------|-0-------------|
E|----------------|--------------|-----------------|---------------|

  yeahh                              i'd rather be with you, 

      F                 G           G7
e|--------1-------|/------3------|-------|
B|----1-----1---1-|/--3-----3--3-|-------|
G|------2-----2---|/----4----4---|-------| 
D|--3-------------|/5------------|-----0-| 
A|----------------|--------------|-0h2---| 
E|----------------|--------------|-------|

say you want the same thing too



Verse 2

     C                 G                 Am               G
e|----------------|------------------|---------------|-------3-------|
B|--------1-------|--------0h1-------|-------1-------|---------------|
G|----0-----0---0-|-----0------0---0-|---2-----2---2-|---0-----0---0-| 
D|------2-----2---|-------0------0---|-----2-----2---|-----0-----0---|  
A|--3-------------|-0h2--------------|-0-------------|---------------|
E|----------------|------------------|---------------|-3-------------|

     now here the    sun come to         dry    the   rain

    C                 G                 Am               G
e|----------------|------------------|---------------|-------3-------|
B|--------1-------|--------0h1-------|-------1-------|---------------|
G|----0-----0---0-|-----0------0---0-|---2-----2---2-|---0-----0---0-| 
D|------2-----2---|-------0------0---|-----2-----2---|-----0-----0---|  
A|--3-------------|-0h2--------------|-0-------------|---------------|
E|----------------|------------------|---------------|-3-------------|

    warm    my    shoulders      and    relieve   my   pain

    C                 G                 Am               G
e|----------------|------------------|---------------|-------3-------|
B|--------1-------|--------0h1-------|-------1-------|---------------|
G|----0-----0---0-|-----0------0---0-|---2-----2---2-|---0-----0---0-| 
D|------2-----2---|-------0------0---|-----2-----2---|-----0-----0---|  
A|--3-------------|-0h2--------------|-0-------------|---------------|
E|----------------|------------------|---------------|-3-------------|
 
   You're    the  one  thing that i'm    missing       here

     C                 G                 Am               G
e|----------------|------------------|---------------|-------3-------|
B|--------1-------|--------0h1-------|-------1-------|---------------|
G|----0-----0---0-|-----0------0---0-|---2-----2---2-|---0-----0---0-| 
D|------2-----2---|-------0------0---|-----2-----2---|-----0-----0---|  
A|--3-------------|-0h2--------------|-0-------------|---------------|
E|----------------|------------------|---------------|-3-------------|

     with   you      beside me    I no         longer fear

I gotta be...

      F                 G               C     G7        Am
e|--------1-------|/------3------|-----------------|---------------|
B|----1-----1---1-|/--3-----3--3-|--------1-------1|-------1-------|
G|------2-----2---|/----4----4---|---0--------0----|---2-----2---2-| 
D|--3-------------|/5------------|-----2--------0--|-----2-----2---| 
A|----------------|--------------|-3--------2------|-0-------------|
E|----------------|--------------|-----------------|---------------|

 bold gotta jump in the cold water gotta grow older with a girl like you

      F                 G              Am             G
e|--------1-------|/------3------|---------------|-------3-------|
B|----1-----1---1-|/--3-----3--3-|-------1-------|---------------|
G|------2-----2---|/----4----4---|---2-----2---2-|---0-----0---0-| 
D|--3-------------|/5------------|-----2-----2---|-----0-----0---| 
A|----------------|--------------|-0-------------|---------------|
E|----------------|--------------|---------------|-3-------------|

Finally see you are naturally The one to make it so easy When you show me the truth 

      F                 G               C    G7         Am
e|--------1-------|/------3------|-----------------|---------------|
B|----1-----1---1-|/--3-----3--3-|--------1-------1|-------1-------|
G|------2-----2---|/----4----4---|---0--------0----|---2-----2---2-| 
D|--3-------------|/5------------|-----2--------0--|-----2-----2---| 
A|----------------|--------------|-3--------2------|-0-------------|
E|----------------|--------------|-----------------|---------------|

  yeahh                              i'd rather be with you, 

      F                 G           G7
e|--------1-------|/------3------|-------|
B|----1-----1---1-|/--3-----3--3-|-------|
G|------2-----2---|/----4----4---|-------| 
D|--3-------------|/5------------|-----0-| 
A|----------------|--------------|-0h2---| 
E|----------------|--------------|-------|

say you want the same thing too


Bridge


      F                 Am            G               G
e|--------1-------|---------------|---------------|---------------|
B|----1-----1---1-|-------1-------|-------0-------|-------0-------|
G|------2-----2---|---2-----2---2-|---0-----0---0-|---0-----0---0-|
D|--3-------------|-----2-----2---|-----0-----0---|-----0-----0---|
A|----------------|-0-------------|---------------|---------------|
E|----------------|---------------|-3-------------|-3-------------|

   I could have saved so much time   for  us

      F                 Am            G               G
e|--------1-------|---------------|-------3-------|-------3-------|
B|----1-----1---1-|-------1-------|---------------|---------------|
G|------2-----2---|---2-----2---2-|---0-----0---0-|---0-----0---0-|
D|--3-------------|-----2-----2---|-----0-----0---|-----0-----0---|
A|----------------|-0-------------|---------------|---------------|
E|----------------|---------------|-3-------------|-3-------------|

    had    I   seen   the  way     to get to where I am today

      F                 Am            G               G
e|--------1-------|---------------|---------------|---------------|
B|----1-----1---1-|-------1-------|-------0-------|-------0-------|
G|------2-----2---|---2-----2---2-|---0-----0---0-|---0-----0---0-|
D|--3-------------|-----2-----2---|-----0-----0---|-----0-----0---|
A|----------------|-0-------------|---------------|---------------|
E|----------------|---------------|-3-------------|-3-------------|

   you   waited    on   me              for   so  long

      F                 Am            G               
e|--------1-------|---------------|-3-------------|
B|----1-----1---1-|-------1-------|-3-------------|
G|------2-----2---|---2-----2---2-|-0-------------|
D|--3-------------|-----2-----2---|-0-------------|
A|----------------|-0-------------|-2-------------|
E|----------------|---------------|-3-------------|

     so now, listen to me say 


chorus (last chorus version)

Chorus v2


I gotta be..

      F                 G               C     G7        Am
e|--------1-------|/------3------|-----------------|---------------|
B|----1-----1---1-|/--3-----3--3-|--------1-------1|-------1-------|
G|------2-----2---|/----4----4---|---0--------0----|---2-----2---2-| 
D|--3-------------|/5------------|-----2--------0--|-----2-----2---| 
A|----------------|--------------|-3--------2------|-0-------------|
E|----------------|--------------|-----------------|---------------|

bold gotta jump in the cold water gotta grow older with a girl like you


      F                 G              Am             G
e|--------1-------|/------3------|---------------|-------3-------|
B|----1-----1---1-|/--3-----3--3-|-------1-------|---------------|
G|------2-----2---|/----4----4---|---2-----2---2-|---0-----0---0-| 
D|--3-------------|/5------------|-----2-----2---|-----0-----0---| 
A|----------------|--------------|-0-------------|---------------|
E|----------------|--------------|---------------|-3-------------|

finally see me naturally the one to make it so easy when you tell me the truth

      F                 G               C    G7         Am
e|--------1-------|/------3------|-----------------|---------------|
B|----1-----1---1-|/--3-----3--3-|-------1--------1|-------1-------|
G|------2-----2---|/----4----4---|---0--------0----|---2-----2---2-| 
D|--3-------------|/5------------|-----2--------0--|-----2-----2---| 
A|----------------|--------------|-3--------2------|-0-------------|
E|----------------|--------------|-----------------|---------------|

   yeah  yeahh   yeahhh           i'd rather be with you

      F                 G               C    
e|--------1-------|/------3------|-----------------|
B|----1-----1---1-|/--3-----3--3-|-------1--------1|
G|------2-----2---|/----4----4---|---0--------0----|
D|--3-------------|/5------------|-----2--------2--| 
A|----------------|--------------|-3--------3------|
E|----------------|--------------|-----------------|

   say you want the same things too

      F                 G               
e|--------1-------|/------3------|
B|----1-----1---1-|/--3-----3--3-|
G|------2-----2---|/----4----4---|
D|--3-------------|/5------------|
A|----------------|--------------|
E|----------------|--------------|

say you feel, the way I do


OUTRO:


    C            
e|--0-0-----0-----|
B|--1-1-----1-----|
G|--0-0-----0-----|
D|--2-2h3p0-2-----|
A|--3-3-----3-----|
E|----------------|



Tap to rate this tab
# A B C D E F G H I J K L M N O P Q R S T U V W X Y Z