Song name
# A B C D E F G H I J K L M N O P Q R S T U V W X Y Z

Joshua Radin - Sundrenched World tab

-------------------------------------------------------------------------------
			     Sundrenched World - Joshua Radin
-------------------------------------------------------------------------------

Tabbed by: Daniel Bell - Dublin, Ireland
Email: beller-1987@hotmail.com

Great song :) critiscism welcome.. not too much though :)
Seen him play this live and somehow managed to remember how he played it!!
Check out videos of him playing it on Youtube to get the jist of it!!

Tuning: Standard

Capo 2nd Fret

Intro - (Played on the cello but arranged similarly for the guitar)

Can be played like this or by simply strumming the chords broken up below (Just 
don't forget the hammer on, sounds good with the strumming)

e|---------------------------------------------------------------------------|
B|----1-------1-------1--------1----1-------1-----0h1----1-------------------|
G|----2---------------0-------------2----------------------------------------|
D|---------3---------------0-------------2------------------2----------------|
A|----0---------------2-------------0----------------------------------------|
E|--------------------3------------------------------------------------------|

e|---------------------------------------------------------------------------|
B|----1-------1-------0--------1----1-------1-----0h1----1-------------------|
G|----2---------------1-------------2----------------------------------------|
D|---------3---------------2-------------2------------------2----------------|
A|----0---------------2-------------0----------------------------------------|
E|---------------------------------------------------------------------------|


Verse is played the exact same as the intro part, strummed of plucked.


End of chorus where he says "in your sundrenched world" is played:

e|---------------------------------------------------------------------------|
B|----1-------1-----1------1----1-----1--0h1--1-----1-----1--0h1--1----------|
G|----2-------------2-----------0-------------------0------------------------|
D|---------3------------3-----------0-----------0-------0-----------0--------|
A|----0-------------0-----------2-------------------2------------------------|
E|------------------------------3-------------------3------------------------|


Chorus - Again can be played strummed or plucked


e|---------------------------------------------------------------------------|
B|----1-------1-------1-----1-----1--0h1--1------1-----1---0h1---1-----------|
G|----0---------------------0--------------------2---------------------------|
D|---------2-----0h2----2-------0-----------0--------2--------------2--------|
A|----3---------------------2--------------------0---------------------------|
E|--------------------------3------------------------------------------------|

e|---------------------------------------------------------------------------|
B|----1-----1--0h1---1-------------------------------------------------------|
G|----2----------------------------------------------------------------------|
D|--------3------------3-----------------------------------------------------|
A|----0----------------------------------------------------------------------|
E|---------------------------------------------------------------------------|

Above is played twice followed by:

e|---------------------------------------------------------------------------|
B|----1-------1-------1-----0-----0-------0-------1--------1---0h1---1-------|
G|----0---------------------1---------------------2--------------------------|
D|---------2-----0h2----2-------2----0h2----2------------2--------------2----|
A|----3---------------------2---------------------0--------------------------|
E|---------------------------------------------------------------------------|

e|---------------------------------------------------------------------------|
B|----1-----1--0h1---1-------------------------------------------------------|
G|----2----------------------------------------------------------------------|
D|--------3------------3-----------------------------------------------------|
A|----0----------------------------------------------------------------------|
E|---------------------------------------------------------------------------|

And then back to verse and so on... :)

Please Rate :)


************************************

| /   slide up
| \   slide down
| h   hammer-on
| p   pull-off
| ~   vibrato
| +   harmonic
| x   Mute note
| b   Bend
| pb  Pre-bend
| br  Bend release
| pbr Pre-bend release
| brb Bend release bend

************************************
Tap to rate this tab
 
# A B C D E F G H I J K L M N O P Q R S T U V W X Y Z